» » »

Zemlja Bass tabs (ver.1)

Artists:  A B C D E F G H I J K L M N O P Q R S T U V W X Y Z # 

Zemlja Bass tabs (ver.1)

Ekv
Rating:
0/5 (0 votes)

Hard to play? Try these video lessons and learn fast.
                Band: EKV(Ekatarina Velika)

Bass enters after guitar intro

              MAIN RIFF
G|--------||------------||
D|--------||------------||
A|--------||-0-0--------||
E|-50-2-3-||-----50-2-3-||

BRIGDE-1
G|----------|
D|----------|
A|-3-3--7-7-|
E|----------|

MAIN RIFF

BRIDGE-2
G|--------------------|
D|----------7-9-10-12-|
A|-3-3--7-7-----------|
E|--------------------|

MAIN RIFF X2

BRIDGE-3
G|---------------------------|
D|-----3-5-6-8-----7-9-10-12-|
A|-3-3---------7-7-----------|
E|---------------------------|

MAIN RIFF X2

CHORUS X2
G|--------------------------------------------------------|
D|--------------------------------------------------------|
A|---------------------------------0-0-0-0-0-0-0-0-3-2-0~-|
E|-5-5-5-5-5-5-5-5-3-3-3-3-3-3-3-3------------------------|

MAIN RIFF

BRIDGE-2

MAIN RIFF X2

BRIDGE-3

MAIN RIFF X2

CHORUS X2

SOLO
G|--1414-1212-99--1414-1212-99--1414-1212-99--1414-1212-99--|
D|----------------------------------------------------------|
A|----------------------------------------------------------|
E|----------------------------------------------------------|

G|--1212-1010-77--1212-1010-77--1212-1010-77-7-6--------------|
D|-----------------------------------------------7-6----------|
A|---------------------------------------------------6-5------|
E|-------------------------------------------------------6-5--|

MAIN RIFF

CHORUS X4
 the end ;)
hope you like it
            
Hard to play? Try these video lessons and learn fast. | Correct




comments powered by Disqus
↑ Back to top | Tablatures and chords are parodies/interpretations of the original songs. You may use it for private study, scholarship, research or language learning purposes only