» » »

Ekv, Par Godina Za Nas Chords (ver.1)

Artists:  A B C D E F G H I J K L M N O P Q R S T U V W X Y Z # 

Par Godina Za Nas Chords (ver.1)

Ekv Tabs
Rating:
0/5 (0 votes)
Par Godina Za Nas lessons Tabs too difficult? Try these video lessons and learn fast
                ekv
par godina za nas



used chords
  Am   D   D(1)  Bb   G    C
|-5----5----2----6----3----8----|
|-5----7----3----6----3----8----|
|-5----7----2----7----4----9----|
|-7----7----0----8----5----10---|
|-7----5----x----8----5----10---|
|-5----x----x----6----3----8----|



intro(played on wah wah)
C   C   Am   D   Am   D   C   C


verse
|---------------|
|---------------|
|---------------|
|-2-2-5-2-2-5-2-|
|-0-0-3-0-0-3-0-|
|---------------|


    Am       
Moj prijatelj i ja sedimo na klupi i gledamo
    D
zvezde i slusamo vesti sto su upravo 
               Am             Bb            Am
stigle kazu da imamo jos samo par godina za nas...




pre chorus
C               D
da li znas kako zelim da te nadjem 
C              D        
da li znam sta trebam da znam 
C            D
voli me kako nikad nisi vilela



chorus
Am                 G              D(1)
voli me onako kako nikad nisi volela
Am                 G              D(1)
voli me onako kako nikad nisi volela...



solo
|-----------------------------------------------------------------|
|-----------------------------------------------------------------|
|-7^-5-----x-x-x-x-7^-x-x-x-x-7^-x-x-x-x-7^-x-x-x-x-7^-x-x-x-x-7^-|
|------7-5-x-x-x-x----x-x-x-x----x-x-x-x----x-x-x-x----x-x-x-x-7^-|
|-----------------------------------------------------------------|
|-----------------------------------------------------------------|



you can improvise with outro solo


:)
            

comments powered by Disqus
↑ Back to top | Ekv Chords for Par Godina Za Nas. Lyrics for acoustic guitar and electric guitar. Tablatures and chords are parodies/interpretations of the original songs. You may use it for private study, scholarship, research or language learning purposes only