» » »

Ekv, Anestezija Chords (ver.1)

Artists:  A B C D E F G H I J K L M N O P Q R S T U V W X Y Z # 

Anestezija Chords (ver.1)

Ekv Tabs
Rating:
0/5 (0 votes)
Anestezija lessons Tabs too difficult? Try these video lessons and learn fast
                -----------------------------------------------------------------------------
-----------------------------------------------------------------------------

Tuning: Standard

Intro: 
Asus2 C5 B5
Em C5 B5

Asus2                      C5 B5
Dobro znas svaku rec, svaki znak
Asus2              
kako najlakse, najbrze, najsladje
C5  B5  Em      C5 B5 Em C5 B5
reci odlazim.
Asus2                      C5 B5
Rastemo, pazimo, slucajno gazimo
Asus2                C5 B5  Em    C5 B5 Em C5 B5
tvoje najblaze usne kazu odlazim.

Asus2 Am Asus4 Am ...
Anesteeeeeeeeeeeezija 

e|-----------------------------|
B|-----------------------------|
G|--9-7-9-----------4--2-------|
D|--9-7-9--9--7--5--4--2--2-2--|
A|--7-7-7--9--7--5--2--0--2-2--|
E|---------7--5--3--------0-0--|

Asus2 Am Asus4 Am ...
Anesteeeeeeeeeeeezija 

e|-----------------------------|
B|-----------------------------|
G|--9-7-9-----------4--2-------|
D|--9-7-9--9--7--5--4--2--2-2--|
A|--7-7-7--9--7--5--2--0--2-2--|
E|---------7--5--3--------0-0--|

Interlude: Am(x02210) D6add9(x04430) Am7(x05550) Dadd9(x07770) Em C5 B5 Em C5 B5

Solo:
e|----------------------------------------------------------------------------|
B|-12--12b13-12---------------------------------------------------------------|
G|---------------14-12-14-12-14-11--11-12-9------11-11-11-12-9----11b12b11b12-|
D|----------------------------------------------------------------------------|
A|----------------------------------------------------------------------------|
E|----------------------------------------------------------------------------|

Smeje se zrcalo mojim ocima,
srebrne bube zricu odlazim.
Zamisli ti si ja, zamisli ja sam ti,
otvaram oci i kazem odlazim.

Anestezija (2x)
            

comments powered by Disqus
↑ Back to top | Ekv Chords for Anestezija. Lyrics for acoustic guitar and electric guitar. Tablatures and chords are parodies/interpretations of the original songs. You may use it for private study, scholarship, research or language learning purposes only