» » »

Redemption Tabs (ver.1)

Artists:  A B C D E F G H I J K L M N O P Q R S T U V W X Y Z # 

Redemption Tabs (ver.1)

Ektomorf
Rating:
0/5 (0 votes)

Hard to play? Try these video lessons and learn fast.
                -----------------------------------------------------------------------------
-----------------------------------------------------------------------------

Tuning: Drop A: AEADF#B

B|-------------------------------------|
F#|------------------------------------|
D|-------------------------------------|
A|--0--0-3-3-3-4-5---0-0-3-3-3-4-5-----|
E|--0--0-3-3-3-4-5---0-0-3-3-3-4-5--x4-|
A|--0--0-3-3-3-4-5---0-0-3-3-3-4-5-----|

B|------------------------------|
F#|-----------------------------|
D|------------------------------|
A|------------------------------|
E|--------------------------x2--|
A|--0--0-1-0-4-1--0--0-1-3------|

B|-----------------------------|
F#|----------------------------|
D|-----------------------------|
A|--0--0-1-0-4-1--0--0-1-3-----|
E|--0--0-1-0-4-1--0--0-1-3--x4-|
A|--0--0-1-0-4-1--0--0-1-3-----|

B|-------------------------------------|
F#|------------------------------------|
D|-------------------------------------|
A|--0--0-3-3-3-4-5---0-0-3-3-3-4-5-----|
E|--0--0-3-3-3-4-5---0-0-3-3-3-4-5--x4-|
A|--0--0-3-3-3-4-5---0-0-3-3-3-4-5-----|

B|-----------------------------|
F#|----------------------------|
D|-----------------------------|
A|--0--0-1-0-4-1--0--0-1-3-----|
E|--0--0-1-0-4-1--0--0-1-3--x4-|
A|--0--0-1-0-4-1--0--0-1-3-----|

B|-------------------------------------|
F#|------------------------------------|
D|-------------------------------------|
A|--0--0-3-3-3-4-5---0-0-3-3-3-4-5-----|
E|--0--0-3-3-3-4-5---0-0-3-3-3-4-5--x2-|
A|--0--0-3-3-3-4-5---0-0-3-3-3-4-5-----|

B|------------------------------------|
F#|-----------------------------------|
D|------------------------------------|
A|--0-0-0-----------------------------|
E|--0-0-0--------------------------x2-|
A|--0-0-0-0-1-0-0-0-1-0-0-0-1-0-0-----|
    . . .

       (Rhythm part during the solo)
B|------------------------------------|
F#|-----------------------------------|
D|------------------------------------|
A|--0-0-0-0-1-0-0-0-1-0-0-0-1-0-0-----|
E|--0-0-0-0-1-0-0-0-1-0-0-0-1-0-0--x4-|
A|--0-0-0-0-1-0-0-0-1-0-0-0-1-0-0-----|

      (Then this part during the solo)
B|-------------------------------------|
F#|------------------------------------|
D|-------------------------------------|
A|--0--0-3-3-3-4-5---0-0-3-3-3-4-5-----|
E|--0--0-3-3-3-4-5---0-0-3-3-3-4-5--x2-|
A|--0--0-3-3-3-4-5---0-0-3-3-3-4-5-----|

B|-----------------------------|
F#|----------------------------|
D|-----------------------------|
A|--0--0-1-0-4-1--0--0-1-3-----|
E|--0--0-1-0-4-1--0--0-1-3--x4-|
A|--0--0-1-0-4-1--0--0-1-3-----|

B|-------------------------------------|
F#|------------------------------------|
D|-------------------------------------|
A|--0--0-3-3-3-4-5---0-0-3-3-3-4-5-----|
E|--0--0-3-3-3-4-5---0-0-3-3-3-4-5--x4-|
A|--0--0-3-3-3-4-5---0-0-3-3-3-4-5-----|

B|------------------------------------|
F#|-----------------------------------|
D|------------------------------------|
A|--0-0-0-----------------------------|
E|--0-0-0--------------------------x4-|
A|--0-0-0-0-1-0-0-0-1-0-0-0-1-0-0-----|

B|------------------------------------|
F#|-----------------------------------|
D|------------------------------------|
A|--0-0-0-0-1-0-0-0-1-0-0-0-1-0-0-----|
E|--0-0-0-0-1-0-0-0-1-0-0-0-1-0-0--x4-|
A|--0-0-0-0-1-0-0-0-1-0-0-0-1-0-0-----|

B|--------|
F#|-------|
D|--------|
A|--0-0-0-|
E|--0-0-0-|
A|--0-0-0-|
    . . .

************************************

| .   Palm mute

************************************

Hi there guys, I have basically tabbed out
the entire structure of the song
so if you play everything going
down the page from start to finish then everything should be fine.
If you notice any mistakes or have any comments
please send me an e-mail and I will get back to you.

Cheers guys, Keep supporting metal and good luck \m/
            
Hard to play? Try these video lessons and learn fast. | Correct




comments powered by Disqus
↑ Back to top | Tablatures and chords are parodies/interpretations of the original songs. You may use it for private study, scholarship, research or language learning purposes only