» » »

No Compromise Bass tabs (ver.1)

Artists:  A B C D E F G H I J K L M N O P Q R S T U V W X Y Z # 

No Compromise Bass tabs (ver.1)

Ektomorf
Rating:
0/5 (0 votes)

Tabs too difficult? Try these video lessons and learn fast.
                No Compromise by Ektomorf
Drop C Tuning

INTRO
F--------------------|
C--------------------|
G-0-12-0--0-12-12-0--|
C-0-12-0--0-12-12-0--|

VERSE
F------------------|
C------------------|
G-0-0/12-0-0/12-0--|
C-0-0/12-0-0/12-0--|

0.41
F----------------| sb = slight bend
C----------------|
G----------------| tremolo pick the 0s
C-000000-12sb-0--|

2.16
F------------------|
C------------------|
G-0-1-2-1-0-1-2-1--|
C-0-1-2-1-0-1-2-1--|

OUTRO
F--------------|
C--------------|
G-0-0-0-2-1-0--|
C-0-0-0-2-1-0--|

Any corrections please comment
Thanks
            
Tabs too difficult? Try these video lessons and learn fast.


comments powered by Disqus
↑ Back to top | Tablatures and chords are parodies/interpretations of the original songs. You may use it for private study, scholarship, research or language learning purposes only