>
 >
Last Fight

Last Fight Guitar Tabs

Ektomorf - Last Fight chords, tabs, tablatures, lyrics

Guitar lessons | Add/correct | Request | Top 50 tabs Artists:  A B C D E F G H I J K L M N O P Q R S T U V W X Y Z 0-9

Last Fight Guitar Tabs – Ektomorf

CD, Sheet music, Poster

Do you like Last Fight? Share with your friends now
Tabs
-----------------------------------------------------------------------------
-----------------------------------------------------------------------------

Tuning: Drop A (for 6-string guitars): A E A D F# B

Clean intro
 |-------------------------------------------22------21---------------------|
 |------15--15-------------15--15-------------------------13---15--15-------|
 |-14------------14---14------------14----------------------------------14--|
 |--------------------------------------------------------------------------|
 |---------------------------------------17------16-------------------------|
 |--------------------------------------------------------------------------|

 |------------------------22------21----------------------------------------|
 |-13---15--15-------------------------13-----------------------------------|
 |---------------14---------------------------------------------------------|
 |------------------------------------------14---15-------------------------|
 |--------------------17------16--------------------------------------------|
 |--------------------------------------------------------------------------|

Distorted for remainder of song
 |---------------------------------|
 |---------------------------------|
 |---------------------------------|8X
 |---------------------------------|
 |---------------------------------|
 |-2-0-0-1-0-0-2-0-0-1-0-0-333-111-|

 |-----------------------------------------------------------------|
 |-----------------------------------------------------------------|
 |-----------------------------------------------------------------|2X
 |-----------------------------------------------------------------|
 |-----------------------------------------------------------------|
 |-0-8-8-8-8-8-8-8-7-7-7-5-5-5-5-5-4-4-4-4-4-4-4-4-1-1-1-1-1-1-1-1-|

 |------------------------------------------------------------|
 |------------------------------------------------------------|
 |------------------------------------------------------------|2X
 |-3-----------------------------3-4--------------------------|
 |-3-----------------------------3-4--------------------------|
 |-3-000-000-000-000-000-000-000-3-4--000-000-000-000-000-000-|
     ... ... ... ... ... ... ...      ... ... ... ... ... ...

 |-------|---------------------------------|
 |-------|---------------------------------|
 |-2-----|---------------------------------|8X
 |-------|---------------------------------|
 |-------|---------------------------------|
 |-------|-2-0-0-1-0-0-2-0-0-1-0-0-333-111-|

 |-----------------------------------------------------------------|
 |-----------------------------------------------------------------|
 |-----------------------------------------------------------------|2X
 |-----------------------------------------------------------------|
 |-----------------------------------------------------------------|
 |-0-8-8-8-8-8-8-8-7-7-7-5-5-5-5-5-4-4-4-4-4-4-4-4-1-1-1-1-1-1-1-1-|

 |------------------------------------------------------------|
 |------------------------------------------------------------|
 |------------------------------------------------------------|2X
 |-3-----------------------------3-4--------------------------|
 |-3-----------------------------3-4--------------------------|
 |-3-000-000-000-000-000-000-000-3-4--000-000-000-000-000-000-|
     ... ... ... ... ... ... ...      ... ... ... ... ... ...

 |------------------------------|
 |------------------------------|
 |------------------------------|5X
 |----------------------------2-|
 |-1-2-3-0--2-3-0--2-3-0----2---|
 |-1-2-3-0--2-3-0--2-3-0--2-----|
   . . . .  . . .  . . .  + + +

 |--------------------------------------------------------------------------|
 |--------------------------------------------------------------------------|
 |--------------------------------------------------------------------------|
 |----------------------------2-------raise whammy bar----------------------|
 |-1-2-3-0--2-3-0--2-3-0----2-----------------------------------------------|
 |-1-2-3-0--2-3-0--2-3-0--2-------------------------------------------------|
   . . . .  . . .  . . .  + + +

 |----------------------------------------------------------------|
 |----------------------------------------------------------------|
 |----------------------------------------------------------------|4X
 |----------------------------------------------------------------|
 |-1-2-3-0--0-0-0-0-0-0-0-0-0-0-0-0-0-0-0-0-0-0-0-0-0-0-0-0-0-0-0-|
 |-1-2-3-0--0-0-0-0-0-0-0-0-0-0-0-0-0-0-0-0-0-0-0-0-0-0-0-0-0-0-0-|
   . . . .  . . . . . . . . . . . . . . . . . . . . . . . . . . .

 |-------------------------------------------|----------------------------|
 |-------------------------------------------|----------------------------|
 |-------------------------------------------|----------------------------|2X
 |-------------------------------------------|----------------------------|
 |-8----7--5--4----1----8----7--5--4----1----|-3-0-----(0)-----(0)--------|
 |-8----7--5--4----1----8----7--5--4----1----|-3-0-----(0)-----(0)--------|

 |---------------------------------|
 |---------------------------------|
 |---------------------------------|9X
 |---------------------------------|
 |---------------------------------|
 |-2-0-0-1-0-0-2-0-0-1-0-0-333-111-|

 |---------------------------------------|
 |---------------------------------------|
 |---------------------------------------|
 |---------------------------------------|
 |---------------------------------0---x-|
 |-2-0-0-1-0-0-2-0-0-1-0-0-333-111-0---x-|


************************************

| +   harmonic
| .   palm mute
| x   mute note
| (#)   let ring

************************************





Comments


Popular Ektomorf tabs & chords
I Choke Bass Tabs
No Compromise Bass Tabs
Gypsy Tabs
Hell Is Here Tabs
I Can See You Intro Tabs
I Choke Tabs
I Miss You Tabs
No Compromise Tabs
Redemption Tabs
The One Tabs


Song lyrics



↑ Back to top | Tablatures and chords are parodies/interpretations of the original songs. You may use it for private study, scholarship, research or language learning purposes only
© 2014 AZChords.com Contact us | Privacy policy | DMCA | Add/correct tabs | Request tabs | Top 50 tabs