>
 >
Its Up To You

Its Up To You Guitar Tabs

Ektomorf - Its Up To You chords, tabs, tablatures, lyrics

Guitar lessons | Add/correct | Request | Top 50 tabs Artists:  A B C D E F G H I J K L M N O P Q R S T U V W X Y Z 0-9

Its Up To You Guitar Tabs – Ektomorf

CD, Sheet music, Poster

Do you like Its Up To You? Share with your friends now
Tabs
-----------------------------------------------------------------------------
                             IT'S UP TO YOU - Ektomorf
-----------------------------------------------------------------------------

Tuning: Drop A (for 6-string guitars): A E A D F# B

 |-------------------------------------------------------------------|
 |-------------------------------------------------------------------|
 |-------------------------------------------------------------------|
 |-------------------------------------------------------------------|
 |-------------------------------------------------------------------|
 |-0-0-0-0-0-0-0-12-0-0-0-0-0-0-0-0-0-0-0-0-0-0-0-12-0-0-0-0-0-0-0-0-|

 |-----------------------------------------------------------------|
 |-----------------------------------------------------------------|
 |-----------------------------------------------------------------|
 |----------------------------------0-0-4-0-0-0-4-0-0-0-4-0-2\1x---|
 |----------------------------------0-0-4-0-0-0-4-0-0-0-4-0-2\1x---|
 |-0-0-0-0-0-0-0-12-0-0-0-0-0-0-0-0-0-0-4-0-0-0-4-0-0-0-4-0-2\1x---|
PM                                    .   .   .   .   .   .

 |--------------------------------|
 |--------------------------------|
 |--------------------------------|
 |-0-0-4-0-0-0-4-0-0-0-4-0-2\1x---|
 |-0-0-4-0-0-0-4-0-0-0-4-0-2\1x---|
 |-0-0-4-0-0-0-4-0-0-0-4-0-2\1x---|
PM   .   .   .   .   .   .

 |-------------------------------------------------------------------|
 |-------------------------------------------------------------------|
 |-------------------------------------------------------------------|
 |-------------------------------------------------------------------|
 |-------------------------------------------------------------------|
 |-0-0-0-0-0-0-0-12-0-0-0-0-0-0-0-0-0-0-0-0-0-0-0-12-0-0-0-0-0-0-0-0-|

 |---------------------------------------------------------------|
 |---------------------------------------------------------------|
 |---------------------------------------------------------------|
 |-0-0-4-0-0-0-4-0-0-0-4-0-2\1x---0-0-4-0-0-0-4-0-0-0-4-0-2\1x---|
 |-0-0-4-0-0-0-4-0-0-0-4-0-2\1x---0-0-4-0-0-0-4-0-0-0-4-0-2\1x---|
 |-0-0-4-0-0-0-4-0-0-0-4-0-2\1x---0-0-4-0-0-0-4-0-0-0-4-0-2\1x---|
PM   .   .   .   .   .   .        .   .   .   .   .   .

 |------------------------------------------------------------------|
 |------------------------------------------------------------------|
 |------------------------------------------------------------------|2X
 |-1-0x---0-0-0-2-0-3-0x---0-0-0-2-1-1-0x---0-0-0-2\1-0-0-4--0-0-4--|
 |-1-0x---0-0-0-2-0-3-0x---0-0-0-2-1-1-0x---0-0-0-2\1-0-0-4--0-0-4--|
 |-1-0x---0-0-0-2-0-3-0x---0-0-0-2-1-1-0x---0-0-0-2\1-0-0-4--0-0-4--|
PM                                                      .      .

 |-------------------------------------------------------------------|
 |-------------------------------------------------------------------|
 |-------------------------------------------------------------------|
 |-------------------------------------------------------------------|
 |-------------------------------------------------------------------|
 |-0-0-0-0-0-0-0-12-0-0-0-0-0-0-0-0-0-0-0-0-0-0-0-12-0-0-0-0-0-0-0-0-|

 |-----------------------------------------------------------------|
 |-----------------------------------------------------------------|
 |-----------------------------------------------------------------|
 |----------------------------------0-0-4-0-0-0-4-0-0-0-4-0-2\1x---|
 |----------------------------------0-0-4-0-0-0-4-0-0-0-4-0-2\1x---|
 |-0-0-0-0-0-0-0-12-0-0-0-0-0-0-0-0-0-0-4-0-0-0-4-0-0-0-4-0-2\1x---|
PM                                    .   .   .   .   .   .

 |--------------------------------|
 |--------------------------------|
 |--------------------------------|
 |-0-0-4-0-0-0-4-0-0-0-4-0-2\1x---|
 |-0-0-4-0-0-0-4-0-0-0-4-0-2\1x---|
 |-0-0-4-0-0-0-4-0-0-0-4-0-2\1x---|
PM   .   .   .   .   .   .

 |------------------------------------------------------------------|
 |------------------------------------------------------------------|
 |------------------------------------------------------------------|2X
 |-1-0x---0-0-0-2-0-3-0x---0-0-0-2-1-1-0x---0-0-0-2\1-0-0-4--0-0-4--|
 |-1-0x---0-0-0-2-0-3-0x---0-0-0-2-1-1-0x---0-0-0-2\1-0-0-4--0-0-4--|
 |-1-0x---0-0-0-2-0-3-0x---0-0-0-2-1-1-0x---0-0-0-2\1-0-0-4--0-0-4--|
PM                                                      .      .

 |-------------------------|
 |-------------------------|
 |-------------------------|8X
 |-------------------------|
 |-0-2\1-1-0--(0)(0)(0)(0)-|
 |-0-2\1-1-0---0--0--0--0--|
PM .     .

 |--------------------------------------------------------------------------|
 |--------------------------------------------------------------------------|
 |--------------------------Pause-between-----------------------------------|
 |--------------------------1:43 and 1:56-----------------------------------|
 |--------------------------------------------------------------------------|
 |--------------------------------------------------------------------------|

 |------------------------------------------------------------------|
 |------------------------------------------------------------------|
 |------------------------------------------------------------------|
 |-1-0x---0-0-0-2-0-3-0x---0-0-0-2-1-1-0x---0-0-0-2\1-0-0-4--0-0-4--|
 |-1-0x---0-0-0-2-0-3-0x---0-0-0-2-1-1-0x---0-0-0-2\1-0-0-4--0-0-4--|
 |-1-0x---0-0-0-2-0-3-0x---0-0-0-2-1-1-0x---0-0-0-2\1-0-0-4--0-0-4--|
PM                                                      .      .

 |--------------------------------------------------------------------------|
 |--------------------------------------------------------------------------|
 |--------------------------------------------------------------------------|
 |-1-0x---0-0-0-2-0-3-0x---0-0-0-2-1-1-0x---0-0-0-2\1-0-0-4--0-0-4----------|
 |-1-0x---0-0-0-2-0-3-0x---0-0-0-2-1-1-0x---0-0-0-2\1-0-0-4--0-0-4----------|
 |-1-0x---0-0-0-2-0-3-0x---0-0-0-2-1-1-0x---0-0-0-2\1-0-0-4--0-0-4----------|
PM                                                      .      .

 |-----------------|
 |-----------------|
 |-----------------|8X
 |-----------------|
 |-000-000-0-0-0-0-|
 |-000-000-0-0-0-0-|
PM ... ... . . . .

 |--------------------------------------------------------------------------|
 |--------------------------------------------------------------------------|
 |--------------------------------------------------------------------------|
 |--------------------------------------------------------------------------|
 |-0----(0)-----(0)-----(0)-----(0)-----(0)-----(0)-----(0)-----(0)-----(0)-|
 |-0----(0)-----(0)-----(0)-----(0)-----(0)-----(0)-----(0)-----(0)-----(0)-|


************************************

| /   slide up
| \   slide down
| x   Mute note
| (#)   Let ring

************************************





Comments


Popular Ektomorf tabs & chords
I Choke Bass Tabs
No Compromise Bass Tabs
Gypsy Tabs
Hell Is Here Tabs
I Can See You Intro Tabs
I Choke Tabs
I Miss You Tabs
No Compromise Tabs
Redemption Tabs
The One Tabs


Song lyrics



↑ Back to top | Tablatures and chords are parodies/interpretations of the original songs. You may use it for private study, scholarship, research or language learning purposes only
© 2014 AZChords.com Contact us | Privacy policy | DMCA | Add/correct tabs | Request tabs | Top 50 tabs