» » »

Ektomorf, I Miss You Tabs (ver.1)

Artists:  A B C D E F G H I J K L M N O P Q R S T U V W X Y Z # 

I Miss You Tabs (ver.1)

Ektomorf Tabs
Rating:
0/5 (0 votes)
I Miss You lessons Tabs too difficult? Try these video lessons and learn fast
                Tuning: C-G-C-F-A-D

PM - palm muting     h - hammer on
/\ - slide up/down


Intro(guitar1)
|-----------------------------------------------------------------------|
|-----------------------------------------------------------------------|
|-----------------------------------------------------------------------|
|-----------------------------------------------------------------------|
|-------2--------3--------2----------------2--------3--------2----------|
|-4-4-4----4-4-4----4-4-4----4-4-4-4-4-4-4----4-4-4----4-4-4----4-4-4-4-|
|
|(guitar2)
|-----------------------------------------------------------------------|
|-----------------------------------------------------------------------|
|-----------------------------------------------------------------------|
|-----------------------------------------------------------------------|
|-----------------------------------------------------------------------|
|-----------------------------------------------------------------------|


|(guitar1)
|-----------------------------------------------------------------------|
|-----------------------------------------------------------------------|
|-----------------------------------------------------------------------|
|-----------------------------------------------------------------------|
|-------2--------3--------2----------------2--------3--------2----------|
|-4-4-4----4-4-4----4-4-4----4-4-4-4-4-4-4----4-4-4----4-4-4----4-4-4-4-|
|
|(guitar2)
|-----------------------------------------------------------------------|
|-----------------------------------------------------------------------|
|-----------------------------------------------------------------------|
|-----------------------------------------------------------------------|
|-4---4--------------------------------------------------------\\\\\\\--|
|-4---4--------------------------------------------------------\\\\\\\--|
     PM-


Verse(guitar1&2)
|-----------------------------------------------------------------------|
|-----------------------------------------------------------------------|
|-----------------------------------------------------------------------|4x
|-----------------------------------------------------------------------|
|-------2--------3--------2----------------2--------3--------2----------|
|-4-4-4----4-4-4----4-4-4----4-4-4-4-4-4-4----4-4-4----4-4-4----4-4-4-4-|


Bridge1(guitar1&2)
|---------------------------------|
|---------------------------------|
|---------------------------------|
|-------0--0h1----------0--1-1/3--|
|-0-0-0-0--0h1----0-0-0-0--1-1/3--|
|-0-0-0-0--0h1----0-0-0-0--1-1/3--|
 PM------        PM------


Interlude
|(guitar1)
|-----------------------------------------------------------------------|
|-----------------------------------------------------------------------|
|-----------------------------------------------------------------------|2x
|-----------------------------------------------------------------------|
|-------2--------3--------2----------------2--------3--------2----------|
|-4-4-4----4-4-4----4-4-4----4-4-4-4-4-4-4----4-4-4----4-4-4----4-4-4-4-|
|
|(guitar2)
|------------------------first-time-------------------------------------|
|-----------------------------------------------------------------------|
|-----------------------------------------------------------------------|
|-----------------------------------------------------------------------|
|-----------------------------------------------------------------------|
|---------------------------------------------------------scratching----|

Verse(guitar1&2)
|-----------------------------------------------------------------------|
|-----------------------------------------------------------------------|
|-----------------------------------------------------------------------|4x
|-----------------------------------------------------------------------|
|-------2--------3--------2----------------2--------3--------2----------|
|-4-4-4----4-4-4----4-4-4----4-4-4-4-4-4-4----4-4-4----4-4-4----4-4-4-4-|


Bridge1(guitar1&2)
|---------------------------------|
|---------------------------------|
|---------------------------------|
|-------0--0h1----------0--1-1/3--|
|-0-0-0-0--0h1----0-0-0-0--1-1/3--|
|-0-0-0-0--0h1----0-0-0-0--1-1/3--|
 PM------        PM------


Pre-Chorus(guitar1)
|-------------------------------------------|
|-------------------------------------------|
|-------------------------------------------|2x
|-------------------------------------------|
|-------------------------------------------|
|--1-0--0-0--1--0--0-----1-0--0-0--1--0--0--|
     -    -     -  -       -    -     -  -
(guitar1&2)
|-------------------------------------------|
|-------------------------------------------|
|-------------------------------------------|
|-------------------------------------------|
|--1-0--0-0--1--0--0-----1-0--0-0--1--0--0--|
|--1-0--0-0--1--0--0-----1-0--0-0--1--0--0--|
     -    -     -  -       -    -     -  -


Chorus(guitar1&2)
|-----------------------------------------------------|
|-----------------------------------------------------|
|-----------------------------------------------------|3x
|---------------------0-0-----------------------0-0---|
|--1-0--0-0--1--0--0--0-0----1-0--0-0--1--0--0--0-0---|
|--1-0--0-0--1--0--0--0-0----1-0--0-0--1--0--0--0-0---|
     -    -     -              -    -     -


Ending
|-------------------------------------------------|
|-------------------------------------------------|
|-------------------------------------------------|
|---------------------0-0-------------------------|
|--1-0--0-0--1--0--0--0-0----1-0--0-0--1--0--0----|
|--1-0--0-0--1--0--0--0-0----1-0--0-0--1--0--0----|
     -    -     -              -    -     -  -
            

comments powered by Disqus
↑ Back to top | Ektomorf Tabs for I Miss You. Lyrics for acoustic guitar and electric guitar. Tablatures and chords are parodies/interpretations of the original songs. You may use it for private study, scholarship, research or language learning purposes only