» » »

Ektomorf, Fuck You All Bass tabs (ver.1)

Artists:  A B C D E F G H I J K L M N O P Q R S T U V W X Y Z # 

Fuck You All Bass tabs (ver.1)

Ektomorf Tabs
 Rating:
4/5 (4 votes)
Fuck You All lessons Tabs too difficult? Try these video lessons and learn fast
1
                -------------------------------------------------------------------------------
-------------------------------------------------------------------------------


Tuning: Drop down D - DADG

Please rate and comment!

Intro (if you like to play it) x2:

G|---2----------------------------------­----------------­-|
D|-------3---222222222222---------0----3---222222222222--|
A|-------------------------------------------------------|
D|-------------------------------------------------------|

G|---2--------------------------------------------------­-|
D|-------3---000000000000---------0----3---222222222222--|
A|-------------------------------------------------------|
D|-------------------------------------------------------|


Verse x2:

G|---------|
D|---------|
A|---------|
D|---0--3--|

G|------------------------|
D|------------------------|
A|------------------------|          
D|---222222222222---0--3--|

G|------------------------|
D|------------------------|
A|------------------0-----|          
D|---222222222222------3--|

G|------------------------|
D|------------------------|
A|------------------------|
D|---000000000000---0--3--|

G|------------------------|
D|------------------------|
A|------------------------|  second time without the last two notes
D|---222222222222---0--3--|


Chorus x?:

G|------------|
D|------------|
A|---6--7--8--|
D|------------|


Verse x2

Chorus x? (let last note ring out at the 16th time)

Bridge:

Part 1 x2:
G|------------------------------------------|
D|------------------------------------------|
A|---4-4--4-4--4-4--5-5--4-4--4-4--5-5--8-8-|
D|------------------------------------------|

Part 2 x2:

G|--------------------------------------|
D|--------------------------------------|
A|--------------------------------------|
D|--00000000-33333333-66666666-55555555-|

Part 1 x2

Part 2 x2

Part 3 x2:

G|---------------------------|
D|---------------------------|
A|---------------------------|
D|--7-7-7-6-6-6-7-7-7-6-6-6--|

Chorus x?

Outro x12:

G|--------------------------|
D|--------------------------|
A|--2-2--2-2----------------|     listen carefully for timing
D|---------------1-1-1--0-0-|
            
Submit corrections

comments powered by Disqus
↑ Back to top | Ektomorf Bass for Fuck You All. Lyrics for acoustic guitar and electric guitar. 1 Tablatures and chords are parodies/interpretations of the original songs. You may use it for private study, scholarship, research or language learning purposes only