>
 >
Tausend Tote Nutten

Tausend Tote Nutten Guitar Tabs

Eisregen - Tausend Tote Nutten chords, tabs, tablatures, lyrics

Guitar lessons | Add/correct | Request | Top 50 tabs Artists:  A B C D E F G H I J K L M N O P Q R S T U V W X Y Z 0-9

Tausend Tote Nutten Guitar Tabs – Eisregen

CD, Sheet music, Poster

Do you like Tausend Tote Nutten? Share with your friends now
Tabs
Interpret: Eisregen
Tuning: Drop D

Intro/part 1: Tremolo

e|--------------------------------------|
b|--------------------------------------|
g|--------------------------------------|
D|-222222222222222222111111111444444444-|
A|-222222222222222222111111111444444444-|
D|-222222222222222222111111111444444444-|


Part 2: (starts at the ending of: "Sende den Feinden Feuergaden")

e|--------------------------------------|
b|--------------------------------------|
g|--------------------------------------|
D|-222222222255555555111111111112222222-|
A|-222222222222222222111111111111111111-|
D|-222222222222222222111111111111111111-|


part 3: (Before Chorus starts):

e|-------------------------------------|
b|-------------------------------------|
g|-------------------------------------|
D|--2-3-2---2-3-5-6-3---2-3-2---2-33-6-|
A|--2-3-2---2-3-5-6-3---2-3-2---2-33-6-|
D|--2-3-2---2-3-5-6-3---2-3-2---2-33-6-|
PM  . . .   . . . . .   . . .   . ..

Chorus:

e|------------------------------------------------------------------------|
b|------------------------------------------------------------------------|
g|------------------------------------------------------------------------|
D|--7----------------------------------7-----------------------------7-77-|
A|--7----------------------------------7-----------------------------7-77-|
D|--7----------------------------------7-----------------------------7-77-|
PM                                                                     ..
  "Lass sie in rohem Fleisch verbluten.Mein Lebensziel ist: Tausend tote..."

e|------------------------------------------------------------|
b|------------------------------------------------------------|
g|------------------------------------------------------------|
D|--3------------------------------3----------------------3-33|
A|--3------------------------------3----------------------3-33|
D|--3------------------------------3----------------------3-33|
PM                                                          ..         
   "Tausend! Eine stattliche Zahl, Tausend!,-fache Todesqual..."



e|-------------------------------------------------------|
b|-------------------------------------------------------|
g|-------------------------------------------------------|
D|--0-------------------------0---------------------00000|
A|--0-------------------------0---------------------00000|
D|--0-------------------------0---------------------00000|
PM                                                  .....
  "Tausend! Ein heeres Ziel, Tausend, keine weniger und..."


Now play the riffs palm muted as long as the chorus goes


Repeat Part 1 and part 2
Repeat Part 3 and Chorus


Outro:

e|-----------------------------------------|
b|-----------------------------------------|
g|-----------------------------------------|
D|--7----5----3----2----0------------------|
A|--7----5----3----2----0----let ring out--|
D|--7----5----3----2----0------------------|





Comments


Popular Eisregen tabs & chords
Auferstehung Tabs
Bei Den GräBern Tabs
Blutbahnen Tabs
Dein Blut Tabs
Deutschland In Flammen 1 Tabs
Elektrohexe Tabs
Nur Dein Fleisch Tabs
Schlachthaus Blues Tabs
Wundwasser Tabs
Zeit Zu Spielen Tabs


Song lyrics



↑ Back to top | Tablatures and chords are parodies/interpretations of the original songs. You may use it for private study, scholarship, research or language learning purposes only
© 2014 AZChords.com Contact us | Privacy policy | DMCA | Add/correct tabs | Request tabs | Top 50 tabs