» » »

Kaltwassergrab Tabs (ver.1)

Artists:  A B C D E F G H I J K L M N O P Q R S T U V W X Y Z # 

Kaltwassergrab Tabs (ver.1)

Eisregen
Rating:
0/5 (0 votes)

Tabs too difficult? Try these video lessons and learn fast.
                Tuning: Standart


Intro:

e|----------------------------|
h|----------------------------|
g|----------------------------|
D|-----9-9-9-99---------------|
A|-2-2-7-7-7-77-3-3-5-5-5-3/7-|
E|-0-0----------3-3-3-3-3-3/5-|
PM           ..


Riff 1

e|----------------------------|
h|----------------------------|
g|-----9-9-9-99---------------|
D|-2-2-9-9-9-99-5-5-5-5-5-5/7-|
A|-2-2-7-7-7-77-3-3-5-5-5-5/7-|
E|-0-0----------3-3-3-3-3-3/5-|


Riff 2

e|----------------------------------|
h|----------------------------------|
g|----------------------------------|
D|-99-------------------7777777777--|
A|-77-7-9-10-9-7-9-10-9-5555577777--|
E|-00--0----0---0----0--5555555555--|
PM ..                   .......... 


Riff 3

e|-----------------|
h|-----------------|
g|-----------------|
D|-7-------7--7----|
A|---8-7-----8--7--|
E|-----------------|


Riff 4

e|--------------------------------|
h|--------------------------------|
g|--------------------------------|
D|-9999999999-1010-99-5555555555--|
A|--------------------------------|
E|--------------------------------|



Play:


Intro:      1x
Riff 1      5x
Riff 2      4x
Riff 3      6x
Riff 1      6x
Riff 4      10x
Riff 2      4x
Riff 3      4x
            
Tabs too difficult? Try these video lessons and learn fast.


comments powered by Disqus
↑ Back to top | Tablatures and chords are parodies/interpretations of the original songs. You may use it for private study, scholarship, research or language learning purposes only