» » »

Im Dornenwall Tabs (ver.1)

Artists:  A B C D E F G H I J K L M N O P Q R S T U V W X Y Z # 

Im Dornenwall Tabs (ver.1)

Eisregen
Rating:
0/5 (0 votes)

Hard to play? Try these video lessons and learn fast.
                Interpret: Eisregen
Tuning: A step Down


Intro/Riff 1

d|---------------------|    |------------------|
a|---------------------|    |------------------|
f|-----------7-777-777-|    |------------------|
C|-8-888-888-7-777-777-| x3 |-5555555533333333-|
G|-8-888-888-5-555-555-|    |-5555555533333333-|
D|-6-666-666-5-555-555-|    |-3333333311111111-|
PM                            ................


Riff 2

d|----------|
a|----------|
f|----------|
C|-3-33---3-| x4
G|-3-33-2-3-|
D|-1-11-0/1-|
PM   ..


Riff 3

d|---------------|
a|---------------|
f|-7-------------|
C|-7---7---5---3-|
G|-5---7---5---3-|
D|-5---5---3---1-|


Riff 4

d|-------------------------------------|
a|-------------------------------------|
f|-------------------------------------|
C|-55555555555555556-66-6-66-6-66-6-66-|
G|-55555555555555556-66-6-66-6-66-6-66-|
D|-33333333333333334-44-4-44-4-44-4-44-|
PM ................  ..   ..   ..   ..


Outro

d|---|
a|---|
f|---|
C|-5-|
G|-5-|
D|-3-|
PM .


figure out yourself
            
Hard to play? Try these video lessons and learn fast. | Correct




comments powered by Disqus
↑ Back to top | Tablatures and chords are parodies/interpretations of the original songs. You may use it for private study, scholarship, research or language learning purposes only