» » »

Elektrohexe Tabs (ver.1)

Artists:  A B C D E F G H I J K L M N O P Q R S T U V W X Y Z # 

Elektrohexe Tabs (ver.1)

Eisregen
Rating:
0/5 (0 votes)

Hard to play? Try these video lessons and learn fast.
                EQ SET

Bass: 5
Treble: 6
Mid: 4

INTRO (play this twice)


E |------------------------------------------------------|
H |------------------------------------------------------|
G |--7--7--7--7--7---------------------------------------|
D |--7--7--7--7--7--5--5--5--5--5--3--3--3--3--3---------|
A |--5--5--5--5--5--5--5--5--5--5--3--3--3--3--3---------|
E |-----------------3--3--3--3--3--1--1--1--1--1---------|

E |------------------------------------------------------|
H |------------------------------------------------------|
G |-3--3--3--3--3----------------------------------------|
D |-3--3--3--3--3----------------------------------------|
A |-1--1--1--1--1----------------------------------------|
E |------------------------------------------------------|


VERSE (play 5 times, palm muted, same chords as the intro)

E |------------------------------------------------------|
H |------------------------------------------------------|
G |--7--7--7--7--7---------------------------------------|
D |--7--7--7--7--7--5--5--5--5--5--3--3--3--3--3---------|
A |--5--5--5--5--5--5--5--5--5--5--3--3--3--3--3---------|
E |-----------------3--3--3--3--3--1--1--1--1--1---------|

E |------------------------------------------------------|
H |------------------------------------------------------|
G |-3--3--3--3--3----------------------------------------|
D |-3--3--3--3--3----------------------------------------|
A |-1--1--1--1--1----------------------------------------|
E |------------------------------------------------------|

INTERLUDE (play twice)

E |------------------------------------------------------|
H |------------------------------------------------------|
G |---7-----------3--------------------------------------|
D |---7---5---3---3--------------------------------------|
A |---5---5---3---1--------------------------------------|
E |-------3---1------------------------------------------|

CHORUS 1 (play 4 times)

E |------------------------------------------------------|
H |------------------------------------------------------|
G |--7--7--7--7--7---------------------------------------|
D |--7--7--7--7--7--5--5--5--5--5--3--3--3--3--3---------|
A |--5--5--5--5--5--5--5--5--5--5--3--3--3--3--3---------|
E |-----------------3--3--3--3--3--1--1--1--1--1---------|

E |------------------------------------------------------|
H |------------------------------------------------------|
G |-3--3--3--3--3----------------------------------------|
D |-3--3--3--3--3----------------------------------------|
A |-1--1--1--1--1----------------------------------------|
E |------------------------------------------------------|


VERSE (same thing as you already read above)

CHORUS 2 (almost the same as the first one, but the 2nd guitar plays this while the 1st 
plays the chords)

E |------------------------------------------------------|
H |------------------------------------------------------|
G |------------------------------------------------------|
D |--0--0--777--8--7--5--3--3--333--5--7-----------------|
A |------------------------------------------------------|
E |------------------------------------------------------|

E |------------------------------------------------------|
H |------------------------------------------------------|
G |------------------------------------------------------|
D |--0--0--777--8--7--5--7--7--8--7--5--3----------------|
A |------------------------------------------------------|
E |------------------------------------------------------|

This is played 4 times. The 1st and the 2nd time is the chorus, the 3rd and the 4th time 
the solo. In the solo, both guitars play this, no chords.

OUTRO

E |--10------10------10--12--13--17--13--13--12--10------|
H |------10------10--------------------------------------|
G |------------------------------------------------------|
D |------------------------------------------------------|
A |------------------------------------------------------|
E |------------------------------------------------------|

E |--10------10------10--12--13--17--13--12--10----------|
H |------10------10--------------------------------------|
G |------------------------------------------------------|
D |------------------------------------------------------|
A |------------------------------------------------------|
E |------------------------------------------------------|
            
Hard to play? Try these video lessons and learn fast. | Correct




comments powered by Disqus
↑ Back to top | Tablatures and chords are parodies/interpretations of the original songs. You may use it for private study, scholarship, research or language learning purposes only