» » »

Eisregen, Dein Blut Tabs (ver.1)

Artists:  A B C D E F G H I J K L M N O P Q R S T U V W X Y Z # 

Dein Blut Tabs (ver.1)

Eisregen Tabs
 Rating:
4/5 (4 votes)
Dein Blut lessons Tabs too difficult? Try these video lessons and learn fast
1
                Interpret: Eisregen
Tuning: A Step Down


Intro clean

d|-----------------------------------|
a|-----------------------------------|
F|-----------------------------------|
C|---2---2---2---2---2---2---2----3--|
G|--2-2-2-2-2-2-2-2-2-2-2-2-2-2--3-3-|
D|-0---0---0---0---0---0---0----1----|



Riff 1 clean

d|-------------------|
a|-------------------|
F|-------------------|
C|---2---2---2---3---|
G|--2-2-2-2-2-2-3-3--|
D|-0---0---0---1-----|


Riff 2

d|---------------------------|
a|---------------------------|
F|---------------------------|
C|-222222222222222222222-3-5-|
G|-222222222222222222222-3-5-|
D|-000000000000000000000-1-3-|
PM ....... .............


Riff 3 

d|-------------------------------------|
a|-------------------------------------|
F|-------------------------------------|
C|-2222-2222-2222-33-2222-2222-2222-33-|
G|-2222-2222-2222-33-2222-2222-2222-33-|
D|-0000-0000-0000-11-0000-0000-0000-11-|
PM .... .... ....    .... .... ....


Riff 4

d|------------------------|
a|------------------------|
F|-7777777777-------------|
C|-7777777777-88888-55555-|
G|-5555555555-88888-55555-|
D|------------66666-33333-|


Riff 5  clean/Distortion

d|---------------------------------|
a|---------------------------------|
F|---------------------------------|
C|---2---2---2---3---2---2--2222-3-|
G|--2-2-2-2-2-2-3-3-2-2-2-2-2222-3-|
D|-0---0---0---1---0---0----0000-1-|
PM                          ....


Ourto clean

d|--10-10-10-10-10-10-10--------------------------|
a|-8--8--8--8--8--8--8----11--11--11--11--8-8-8-8-|
F|----------------------10--10--10--10---7-7-7-7--|
C|------------------------------------------------|
G|------------------------------------------------|
D|------------------------------------------------|



Play:


Intro:   1x
Riff 1:  12x
Riff 2:  4x
Riff 1:  8x
Riff 2:  4x
Riff 3:  2x
Riff 4:  4x
Riff 3:  2x
Riff 1:  8x
Riff 2:  8x
Riff 5:  4x
Riff 4:  4x
Riff 3:  2x
Riff 4:  4x
Outro:   4x
            
Submit corrections

comments powered by Disqus
↑ Back to top | Eisregen Tabs for Dein Blut. Lyrics for acoustic guitar and electric guitar. 1 Tablatures and chords are parodies/interpretations of the original songs. You may use it for private study, scholarship, research or language learning purposes only