» » »

Bei Den GräBern Tabs (ver.1)

Artists:  A B C D E F G H I J K L M N O P Q R S T U V W X Y Z # 

Bei Den GräBern Tabs (ver.1)

Eisregen
Rating:
0/5 (0 votes)

Hard to play? Try these video lessons and learn fast.
                Riff 1:

e ----------------|
B ----------------|
G ----------------|
D ---2---0---0-0--|
A --2-2-2-2-2---2-|
E -0---3---0--0---|

Riff 2 (Palm Muted) :

e ---------------------------------|
B ---------------------------------|
G ---------------------------------|
D ---------------------------------|
A -2-2-2-2-5-5-5-5-4-4-4-4-4-4-4-4-|
E -0-0-0-0-3-3-3-3-2-2-2-2-2-2-2-2-|

Riff 3 :

e --------------------------------|
B --------------------------------|
G --------------------------------|
D -5-5-5-5-4-4-4-4-2-2-2----------|
A -3-3-3-3-2-2-2-2-0-0-0-2--2-2-2-|
E -----------------------0--0-0-0-|

Riff 4 :


e ---------------------------------|
B ---------------------------------|
G ----------------          * = 10-|
D *-*-*-9-x9-x9--------------------|x9
A 8-8-8-7-x7-x7--------------------|x7
E ---------------------------------|

Riff 5 :


e -----------------------------------------------------------------|
B -----------------------------------------------------------------|
G -----------------------------------------------------------------|
D -----------------------------------------------------------------|
A -7-7-7-7-7-7-7-7-7-7-7-7-7-7-7-7-5-5-5-5-5-5-5-5-5-5-5-5-5-5-5-5-|
E -5-5-5-5-5-5-5-5-5-5-5-5-5-5-5-5-3-3-3-3-3-3-3-3-3-3-3-3-3-3-3-3-|

Riff 6 :

e --------------------------------------------------------|
B --------------------------------------------------------|
G ------------5--5-5-4--4-4-4-4-4-4-4---------------------|
D ------------3--3-3-2--2-2-2-2-2-2-2        ° = Note x16-|
A -7°-5-5-5-5---------------------------------------------|
E -5°-3-3-3-3---------------------------------------------|

Riff 7 :

e --------------------------|
B --------------------------|
G --------------------------|
D ---2---0---0-0----2---0---|
A --2-2-2-2-2---2--2---2--4-|
E -0---3---0--0---0---3---2-|


Song Structure:

-Riff 1 x4
-Riff 2 x4
-Riff 3 x4
-Riff 4 x4
-Riff 5 x2
-Riff 4 x4
-Riff 6 x7
-Riff 7 x1
-Riff 1 x4
-Riff 2 x4
-Riff 3 x4
-Riff 4 x4
-Riff 6 x7


Song ends on :

e --
B --
G --
D --
A -7
E -5
            
Hard to play? Try these video lessons and learn fast. | Correct




comments powered by Disqus
↑ Back to top | Tablatures and chords are parodies/interpretations of the original songs. You may use it for private study, scholarship, research or language learning purposes only