» » »

Alphawolf Tabs (ver.1)

Artists:  A B C D E F G H I J K L M N O P Q R S T U V W X Y Z # 

Alphawolf Tabs (ver.1)

Eisregen
Rating:
0/5 (0 votes)

Hard to play? Try these video lessons and learn fast.
                Interpret: Eisregen
Tuning: A step Down


Riff 1:

d|------------------|
a|------------------|
g|-3-5-7-7777777777-|
C|-3-5-7-7777777777-|
G|-1-3-5-5555555555-|
D|-1-3-5-5555555555-|
PM       ..........


Riff 2:

d|-----------------------------------------------------|
a|-----------------------------------------------------|
g|-7777777777777777777777777---------------------------|
C|-7777777777777777777777777-5555555555555555555555555-| 2x
G|-5555555555555555555555555-5555555555555555555555555-|
D|-5555555555555555555555555-3333333333333333333333333-|
PM  ..... ..... .. .. ......  ..... ..... .. .. ......


d|------------------------|
a|------------------------|
g|-------------(10)--(12)-|
C|-(3)---(2)---(x)---(x-)-|
G|-(x)---(x)---(8)---(10)-|
D|-(1)---(0)--------------|


Riff 3:

d|------------------------------------------------|
a|------------------------------------------------|
g|-7777777777-55555-------------------------------|
C|-7777777777-55555-77777-55555-33333-22222-33333-|
G|-5555555555-33333-77777-55555-33333-22222-33333-|
D|-5555555555-33333-55555-33333-11111-00000-11111-|
PM                         ...   ...   ...     


Riff 4

d|-----------------------|
a|-----------------------|
g|-----------------------|
C|-7-77777-555555-777777-|
G|-7-77777-333333-555555-|
D|-5-55555-333333-555555-|
PM   .. .. .. ..  .. ..


Outro:

|-----|
|-----|
|-(7)-|
|-(7)-|
|-(5)-|
|-(5)-|
            
Hard to play? Try these video lessons and learn fast. | Correct




comments powered by Disqus
↑ Back to top | Tablatures and chords are parodies/interpretations of the original songs. You may use it for private study, scholarship, research or language learning purposes only