» » »

Ten Cent Blues Bass tabs (ver.1)

Artists:  A B C D E F G H I J K L M N O P Q R S T U V W X Y Z # 

Ten Cent Blues Bass tabs (ver.1)

Eisley
Rating:
0/5 (0 votes)

Hard to play? Try these video lessons and learn fast.
                
Tuning: standard

Nice bass lick!

Intro (1's)
G|----------------------------------53-----|
D|-8\----------------------------------53--|
A|-----11-11-11-1--1-2-33-33-33-3/6--------|
E|---------------1-------------------------|

G|---------------------------------88-7--|
D|---------------------------------------|
A|66---6--5-33--3--3-5-66-66-66-3/6------|
E|---6--6-----3--3-----------------------|

Verse "Dear Orthodox.."
G|----------------------------53---------------------------------------|
D|-------------------------------53------------------------------------|
A|11-11-11-1-1-2-33-33-33-3/6-------66---6---6-5-33--3--3-5-66-6-------|
E|----------1--------------------------6---6-------3--3----------66-8-6|

"and my stilts"
G|-------------------------------------------7/8-88-7|
D|---------------------------------------------------|
A|66-66-66-666-5-33--33--33-3-33-55-66--6--6---------|
E|-----------------3---3--------------6--6-----------|

pre-chorus "adieu, adieu. fare thee well"
G|----------------------------53-------------------------------------------|
D|-------------------------------53----------------------------------------|
A|11-11-11-1-1-2-33-33-33-3/6-------66--6--6-5-33--3--35-66--66---66-666-8-|
E|----------1-------------------------6--6-------3---3-----6----6----------|

Chorus "whoa..."
G|-----------------------------------53--------------------------------------------5-3----|
D|--------------------------------------53---------------------------------------------5-3|
A|1111111111-1---1-2-33333333333-3/6-------66--6---6-5-33--3--3-5-66---66---66-3/6--------|
E|----------1--1-----------------------------6---6-------3--3--------6----6---------------|

verse x1
pre-chorus x1

Chorus "whoa..."
G|-----------------------------------53-----------------------------------------|
D|--------------------------------------53--------------------------------------|
A|1111111111-1---1-2-33333333333-3/6-------66--6---6-5-33--3--3-5-66---66---66-8|
E|----------1--1-----------------------------6---6-------3--3--------6----6-----|

verse "then she chose to dissect me..."
G|-------------------------------------|
D|-------------------------------------|
A|1/6-66-66-33-33-5-66---66---66-666-8-|
E|---------------------6----6----------|

Chorus x1

Bridge "in a way..."
G|--------------|
D|-8~-----5~----|
A|--------------|
E|--------------| x4

"in the end..."
G|-------5~---5-8~---8\--|
D|-8~--------------------|
A|-----------------------|
E|-----------------------|

Verse
G|----------------------------53----------------------------------------|
D|-------------------------------53-------------------------------------|
A|11-11-11-1-1-2-33-33-33-3/6-------66---6---6-5-33--3--3-5-66-666666-88|
E|----------1--------------------------6---6-------3--3-----------------|

repeat chorus until end
            
Hard to play? Try these video lessons and learn fast. | Correct




comments powered by Disqus
↑ Back to top | Tablatures and chords are parodies/interpretations of the original songs. You may use it for private study, scholarship, research or language learning purposes only