» » »

Telescope Eyes Bass tabs (ver.1)

Artists:  A B C D E F G H I J K L M N O P Q R S T U V W X Y Z # 

Telescope Eyes Bass tabs (ver.1)

Eisley
Rating:
0/5 (0 votes)

Hard to play? Try these video lessons and learn fast.
                Telescope Eyes by Eisley
Bass Tabs by Gabby and Vicki

*NOTE*if you listen to the song, you’ll get the rhythm. it’s pretty easy!*


VERSE 1:
e|--------------------------------------------------------|
B|--------------------------------------------------------|
G|--------------------------------------------------------|
D|--------------------------------------------------------|
A|------9-5-------9-5-------9-5---------------------------|
E|--7-7------5-5-------7-7-------5-5-9-10---- x4 ---------|

CHORUS:
e|--------------------------------------------------------|
B|--------------------------------------------------------|
G|--------------------------------------------------------|
D|--------------------------------------------------------|
A|--------------------------------------------------------|
E|--10-10-10-10-10-10-10-10-10-10-10-10-10-10-10-10--5-5-5|

e|--------------------------------------------------------|
B|--------------------------------------------------------|
G|--------------------------------------------------------|
D|--------------------------------------------------------|
A|--------------------------------------------------------|
E|--5-5-5-5-5-5-5-5-5-5-5-5-5-7-7-7-7-7-7-7-7-7-7-7-7-7-7-|

e|--------------------------------------------------------|
B|--------------------------------------------------------|
G|--------------------------------------------------------|
D|--------------------------------------------------------|
A|--------------------------------------------------------|
E|--7-7-3-3-3-3-3-3-3-3-3-3-3-3-3-3-3-3-------------------|

VERSE 2:
e|--------------------------------------------------------|
B|--------------------------------------------------------|
G|--------------------------------------------------------|
D|--------------------------------------------------------|
A|------9-5-------9-5-------9-5---------------------------|
E|--7-7------5-5-------7-7-------5-5-9-10---- x4 ---------|
            
Hard to play? Try these video lessons and learn fast. | Correct




comments powered by Disqus
↑ Back to top | Tablatures and chords are parodies/interpretations of the original songs. You may use it for private study, scholarship, research or language learning purposes only