» » »

Telescope Eyes Tabs (ver.4)

Artists:  A B C D E F G H I J K L M N O P Q R S T U V W X Y Z # 

Telescope Eyes Tabs (ver.4)

Eisley
Rating:
5/5 (1 vote)

Hard to play? Try these video lessons and learn fast.
                -------------------------------------------------------------------------------
-------------------------------------------------------------------------------

Tuning:EADGBe (Standard)

INTRODUCTION
Guitar 1 (Heavy Distortion)
e|-------------------------------------------------------------------------|
B|-------------------------------------------------------------------------|
G|-------------------------------------------------------------------------|
D|-------------------------------------------------------------------------|
A|--2--2-/7-5--5-77-9(10)-9-10--12~--5---2--7-9-7-5---5--77--99------------|
E|-------------------------------------------------------------------------|


VERSE 1
Guitar 1 (Clean)
e|----0----0---------------------------------0-----------------------------|
B|---3-3--3-3-------(7 Times)------(Then)---3------------------------------|
G|--4----2---------------------------------4-------------------------------|
D|-------------------------------------------------------------------------|
A|-------------------------------------------------------------------------|
E|-------------------------------------------------------------------------|


CHORUS


Guitar 1 (Heavy-little distortion)
e|-------------------------------------------------------------------------|
B|-----------------------------------4444444444444444----------------------|
G|-7777777777777777------------------4444444444444444-5555555555555555-----|
D|-7777777777777777-7777777777777777-4444444444444444-5555555555555555-----|
A|-5555555555555555-7777777777777777-2222222222222222-3333333333333333-----|
E|------------------5555555555555555---------------------------------------|

Guitar 2 (little distortion)
e|-2222222222222222-0000000000000000------------------3333333333333333-----|
B|-3333333333333333-2222222222222222-4444444444444444-xxxxxxxxxxxxxxxx-----|
G|-2222222222222222-2222222222222222-4444444444444444-0000000000000000-----|
D|-0000000000000000-2222222222222222-4444444444444444-0000000000000000-----|
A|------------------0000000000000000-2222222222222222-2222222222222222-----|
E|----------------------------------------------------3333333333333333-----|


INTERLUDE
Guitar 2 (Little-No Distortion)
e|-------------------------------------------------------------------------|
B|-14B15--10--77-7B8--3---3-2--2-------------------------------------------|
G|-------------------------------2--4--------------------------------------|
D|-------------------------------------------------------------------------|
A|-------------------------------------------------------------------------|
E|-------------------------------------------------------------------------|


VERSE 2
e|---0----0------------------------------0---------------------------------|
B|--3-3--3-3-----(7 Times)-----(Then)---3----------------------------------|
G|-4----2------------------------------4-----------------------------------|
D|-------------------------------------------------------------------------|
A|-------------------------------------------------------------------------|
E|-------------------------------------------------------------------------|


PLAY CHORUS


INTRODUCTION/SOLO (Same as Before)


PLAY CHORUS (2 TIMES)


OUTRO
e|---0----0----0----0------------------------------------0-----------------|
B|--3-3--3-3--3-3--3-3---(Times 3)-----------(Then) ----3------------------|
G|-4----2----4----2------------------------------------4-------------------|
D|-------------------------------------------------------------------------|
A|-------------------------------------------------------------------------|
E|-------------------------------------------------------------------------|


This was my first official tab, it would be nice if you guys could rate it. An awesome 
played by an awesome band. "ROCK ON!" ^^

| B  Bend string
| /  slide up
|   slide down
| h  hammer-on
| p  pull-off
| ~  vibrato
| +  harmonic
| x  Mute note
===============================================================================
            
Hard to play? Try these video lessons and learn fast. | Correct




comments powered by Disqus
↑ Back to top | Tablatures and chords are parodies/interpretations of the original songs. You may use it for private study, scholarship, research or language learning purposes only