» » »

Eisley, Taking Control Bass tabs (ver.1)

Artists:  A B C D E F G H I J K L M N O P Q R S T U V W X Y Z # 

Taking Control Bass tabs (ver.1)

Eisley Tabs
 Rating:
3.4/5 (5 votes)
Taking Control lessons Tabs too difficult? Try these video lessons and learn fast
1
                -------------------------------------------------------------------------------
-------------------------------------------------------------------------------

Tuning: standard

bass doesn't come in until
Pre-Chorus "and we won't take it..."
G|-----------------------|
D|-----------------------|
A|-4\--4444444444444444--|
E|-----------------------|

Chorus "You've been taking control of our lives"
G|-----------------------------|    |--------------------|
D|-----------------5-------6---|    |-----6--6-----------|
A|33-5-6----6---66---6--88---8-|    |4444---4-4-44444444-|
E|-------44---4----------------| x3 |--------------------|
 
Verse "if we get down..." they are 11's not 1's.
G|--------------|
D|--------------|
A|--------------|
E|444444/-1111--| x10

Pre-Chorus "and we won't take it..."
G|-------------------|
D|-------------------|
A|-4444444444444444--|
E|-------------------|

Chorus "You've been taking control of our lives"
G|-----------------------------|    |--------------------|
D|-----------------5-------6---|    |-----6--6-----------|
A|33-5-6----6---66---6--88---8-|    |4444---4-4-44444444-|
E|-------44---4----------------| x3 |--------------------|

Bridge 
G|--------------------|---------------------------------|
D|--------------------|----------------------------6666-|
A|3333------6666-8888-|3333------6666-888888888888------|
E|-----4444-----------|-----4444------------------------|

G|------------------------|
D|------------------------|
A|------------------------|
E|444444/-1111-444444/-88-| x4

Pre-Chorus "and we won't take it..."
G|-------------------|
D|-------------------|
A|-44444444444444-4--|
E|-------------------|

outro chorus "You've been taking control of our lives"
G|-----------------------------|    |-----------|
D|-----------------5-------6---|    |-----------|
A|33-5-6----6---66---6--88---8-|    |6666-8888--|
E|-------44---4----------------| x3 |-----------|
            
Submit corrections

comments powered by Disqus
↑ Back to top | Eisley Bass for Taking Control. Lyrics for acoustic guitar and electric guitar. 1 Tablatures and chords are parodies/interpretations of the original songs. You may use it for private study, scholarship, research or language learning purposes only