>
 >
Smarter

Smarter Guitar Tabs

Eisley - Smarter chords, tabs, tablatures, lyrics

Guitar lessons | Add/correct | Request | Top 50 tabs Artists:  A B C D E F G H I J K L M N O P Q R S T U V W X Y Z 0-9

Smarter Guitar Tabs – Eisley

CD, Sheet music, Poster

Do you like Smarter? Share with your friends now
ChordsTabsUkulele
Here's how to play this song, 100% correct!

  Verse 1(Riff 1)(3x)
E|-------------------|---------------------|
B|-------------------|---------------------|
G|-------------------|-----2-----------6---|
D|-----2-------2-----|---4---4-------7---7-|
A|---4---4---0---0---|-2-------2-2/5-------|
D|-4-------0-------0-|---------------------|(2x)
  (Riff 2)(3x)
E|-----------|---------------------|
B|-----------|---------------------|
G|-----------|-----2-----------6---|
D|-4-4-4-4-0~|---4---4-------7---7-|
A|-4-4-4-4-0~|-2-------2-2/5-------|
D|-4-4-4-4-0~|---------------------|(2x)
PM * * * *

  Chorus (both guitars) r=11       (2x)
E|-----0~00-----0~00-----0~00-0000000~|
B|-----0~00-----0~00-----0~00-0000000~|
G|-----9~99-----r~rr-----9~99-9999999~|
D|-----9~99-----9~99-----7~77-7777777~|
A|-----x~xx-----x~xx-----x~xx-xxxxxxx~|
D|-7-7-7~77-6-6-6~66-4-4-4~44-4444444~|

  Post-Chorus (Riff 2)
  Verse 2 (Just Riff 2)(4x)
  Chorus (4x)
  
  Bridge
  Guitar 1 (Riff 3)     (2x)
E|--------------------------|
B|----2~2~------------------|
G|-11\2~2~11/14-14141414-13~|
D|--x\0~0~-x/-x--x-x-x-x--x~|
A|--9\0~0~-9/12-12121212-11~|
D|----0~0~------------------|

  Guitar 1 (w/Delay)
E|---------------------|
B|-------17~~------14~~|
G|----14~~~~~---14~~~~~|
D|-16~~~~~~~~15~~~~~~~~|
A|---------------------|
D|---------------------|
  Guitar 2      (2x)                (2x)
E|------------------|------------------|
B|------------------|------------------|
G|-11111111/1313/14-|-10101010/1313/14-|
D|--x-x-x-x/-x-x/-x-|--x-x-x-x/-x-x/-x-|
A|--9-9-9-9/1111/12-|--8-8-8-8/1111/12-|
D|------------------|------------------|
  Riff 3 (2x)
  Guitar 1 (w/Delay)
E|--------------------------12p9-9~~-------------|
B|-------17~~------14~~--10~~~~~~~~~--7~~/14~~~\x|
G|----14~~~~~---14~~~~~9~~~~~~~~~~~~8~~~~--------|
D|-16~~~~~~~~15~~~~~~~~--------------------------|
A|-----------------------------------------------|
D|-----------------------------------------------|
  Guitar 2      (2x)                (2x)
E|------------------|------------------|--------------|-----------------|
B|------------------|------------------|--------------|-----------------|
G|-11111111/1313/14-|-10101010/1313/14-|-9999/1313/14-|-888888888888888-|
D|--x-x-x-x/-x-x/-x-|--x-x-x-x/-x-x/-x-|-xxxx/-x-x/-x-|-xxxxxxxxxxxxxxx-|
A|--9-9-9-9/1111/12-|--8-8-8-8/1111/12-|-7777/1111/12-|-666666666666666-|
D|------------------|------------------|--------------|-----------------|

  Riff 2 (the first part only)
  Chorus (8x)





Comments


Popular Eisley tabs & chords
192 Days Chords
Kind Chords
Watch It Die 2 Chords
Watch It Die 3 Chords
Better Love 2 Tabs
I Wish Ukulele
If Youre Wondering Ukulele
Lost At Sea Ukulele
Mr Moon Ukulele
My Lovely Ukulele


Song lyrics



↑ Back to top | Tablatures and chords are parodies/interpretations of the original songs. You may use it for private study, scholarship, research or language learning purposes only
© 2014 AZChords.com Contact us | Privacy policy | DMCA | Add/correct tabs | Request tabs | Top 50 tabs