» » »

Eisley, Many Funerals Bass tabs (ver.1)

Artists:  A B C D E F G H I J K L M N O P Q R S T U V W X Y Z # 

Many Funerals Bass tabs (ver.1)

Eisley Tabs
 Rating:
4.2/5 (5 votes)
Many Funerals lessons Tabs too difficult? Try these video lessons and learn fast
1
                -------------------------------------------------------------------------------
-------------------------------------------------------------------------------

Tuning: standard

Verse "Young and agile.."
G|-------------------|-----------------------------------------|
D|-------------------|-----------------------------------------|
A|-7-7--7-7--5-5--7-7|-7-7--7-7--5-5--7-7---7-7--7-7--5-5--7-7-|   
E|-------------------|--------------------7--------------------|

Pre-Chorus "Ohh..."
G|-------------------------------------------------------------|
D|-------------------------------------------------------------|
A|03-3--03-3-5--7-7--07-7-5--3-3--03-3-5-7-7--07-7----7-7--07-7|
E|-------------------------------------------------7-----------|

Chorus "break, break down."
G|-------------------------------------------------------|
D|-------------------------------------------------------|
A|---------------222222222222--------------2-------------|
E|-0-0-2-3-5--x3--------------0-0-2-3-5-x3---5-3-5-3-2-0~|

Verse "they fill the empty caskets.."
G|---------------------------------------------------------------------------------|
D|---------------------------------------------------------------------------------|
A|3-3-03-3-03-3-03-3--2-2-03-3-03-3-03-3--7-7-07-7-07-7-07-7--05-5-05-5-05-5-05-5-7|
E|---------------------------------------------------------------------------------|

G|----------------------------------------|
D|----------------------------------------|
A|3-3-03-3-03-3-03-3--2-2-02-2-02-2-02-2--|
E|----------------------------------------|

Chorus "break, break down."
G|-------------------------------------------------------|
D|-------------------------------------------------------|
A|---------------222222222222--------------2-------------|
E|-0-0-2-3-5--x3--------------0-0-2-3-5-x3---5-3-5-3-2-0~|


bridge
G|----------------------------------------------------------|
D|----------------------------------------------------------|
A|-3~---3-2~----2-3~-3/5--------------3~--3-2~---2-3~--3/5--|
E|-----------------------0-0-2-3-5-x2-----------------------|


outro chorus "break break down..."
G|-------------|     |-------------------------|
D|-------------|     |-------------------------|
A|-------------|     |----------2--------------|
E|-0-0-2-3-5---| x15 |0-0-2-3-5---5-3-5-3-2-0~-|
            
Submit corrections

comments powered by Disqus
↑ Back to top | Eisley Bass for Many Funerals. Lyrics for acoustic guitar and electric guitar. 1 Tablatures and chords are parodies/interpretations of the original songs. You may use it for private study, scholarship, research or language learning purposes only