» » »

Invasion Bass tabs (ver.1)

Artists:  A B C D E F G H I J K L M N O P Q R S T U V W X Y Z # 

Invasion Bass tabs (ver.1)

Eisley
Rating:
0/5 (0 votes)
Tabs too difficult? Try these video lessons and learn fast.
                -------------------------------------------------------------------------------
-------------------------------------------------------------------------------

Tuning: standard

Intro 
G|----------------------------------------------|
D|-------------------------------7h8p7--7-----7-|
A|-1/55555555555555-7-88888888--------8---8-7---|
E|----------------------------------------------|

Verse "The colorless words are burning our heels"
G|---------------------------------------------------------------------------------------|
D|--------------------------555555h7---------------------------55555---------------------|
A|55555555555555-7-88888888----------55555555555555-7-88888888-------3h5-5555555555555555|
E|---------------------------------------------------------------------------------------|

Pre-Chorus "Ohh, something's not right..."
G|---------------------|    
D|77-777-55------------|    
A|----------33-333-55--|    
E|---------------------| x4 

Chorus "You you might take the breath from my throat"
G|-----------------------------------|---------------------------------------|
D|-----------------------------------|---------------------------------------|
A|55555555----------33333333---------|5555555555----------33333333-----------|
E|---------11111111----------33333333|------------11111111----------33333h5p3|

pre-verse
G|-------------------------------------------|
D|----------------------------7h8p7--7-----7-|
A|-55555555555555-7-88888888--------8--8-7---|
E|-------------------------------------------|

Verse x1
Pre-Chorus x4
Chorus x2

Bridge "And they will try to make us forget..."
G|--------------------------------|--------------------------------|
D|--------------------------------|--------------------------------|
A|55-5-5~--33-3-3~----------------|-55-5-5~-33-3-3~---------33-3-3~|
E|-----------------33-3-3~-33-3-3~|-----------------33-3-3~--------|

"you don't have to know the truth..."
G|-----------------------------------|
D|-----------------------------------|
A|55-5-5~--33-3-3~-------------------|
E|------------------33-3-3~--66-6-6~-| x2

rest "Ohh something's not right..."

G|------------|
D|------------|
A|-1/3333-----|
E|------------|

chorus x1

outro chorus
G|-------------------------------------|
D|-----7------------------5-2------235-|
A|5555---8-----------3333-----5555-----|
E|----------1111-123-------------------|
            
Tabs too difficult? Try these video lessons and learn fast.


comments powered by Disqus
↑ Back to top | Tablatures and chords are parodies/interpretations of the original songs. You may use it for private study, scholarship, research or language learning purposes only