» » »

Eisley, I Could Be There For You Bass tabs (ver.1)

Artists:  A B C D E F G H I J K L M N O P Q R S T U V W X Y Z # 

I Could Be There For You Bass tabs (ver.1)

Eisley Tabs
Rating:
0/5 (0 votes)
I Could Be There For You lessons Tabs too difficult? Try these video lessons and learn fast
                -------------------------------------------------------------------------------
-------------------------------------------------------------------------------

Tuning: standard

Bass doesn't come in until (1:59)
"oh..."
G|----------|
D|----------|
A|----------|
E|-1/6------|

Verse  "Could someone please walk through with me?"
G|-------------------|
D|-------------------|
A|-------------------|
E|-6-6-6-6-2-2/9-99-9| x6

"cause you are not what it seems"
G|----------------------|--------------------|
D|----------------------|--------------------|
A|--4~----4~--1~-----4~-|---4~-----4~--1~----|
E|2-----2---------2-----|-2-----2----------2-|

rest until (3:05)
"I could be there for you..."
G|--------------------------------------|
D|--------------------------------------|
A|----------------6p4---------------4~--|
E|-1/6-6-6-4-4-x4------6-6-4-4-x4-------|
            

comments powered by Disqus
↑ Back to top | Eisley Bass for I Could Be There For You. Lyrics for acoustic guitar and electric guitar. Tablatures and chords are parodies/interpretations of the original songs. You may use it for private study, scholarship, research or language learning purposes only