» » »

Eisley, A Sight To Behold Bass tabs (ver.1)

Artists:  A B C D E F G H I J K L M N O P Q R S T U V W X Y Z # 

A Sight To Behold Bass tabs (ver.1)

Eisley Tabs
 Rating:
4/5 (4 votes)
A Sight To Behold lessons Tabs too difficult? Try these video lessons and learn fast
1
                -------------------------------------------------------------------------------
-------------------------------------------------------------------------------

Tuning: standard

i added the guitar part into the verse cause it sounds better

Verse "Could I possibly be insane?"
G|-------------------------------------------|
D|-------------------------------------------|
A|-------------------------------1-3-1-3-1-3-|
E|-1-1-1-1-1-1-1-1-1-1--4-1-4-1-4------------| x4

Pre-Chorus "ohh...woah....."
G|----------------------------------------|
D|----------------------------------------|
A|----------1-1-1-13----------1-1-1-1-3~--|
E|-1-1-1-1-----------1-1-1-1--------------|

Chorus "let's break the walls down..."
G|------------------------------------|
D|------------------------------------|
A|------------------11111111----------|
E|11111111-44444444----------11111111-| x2 

ones, not 11's.
G|------------------------------------|
D|-----------------------------3333---|
A|------------------------------------|
E|1111111111111111111111111111--------|

Verse x4
Pre-chorus x1

Chorus "let's break the walls down..."
G|------------------------------------|    |--------------------|
D|------------------------------------|    |--------------------|
A|------------------11111111----------|    |--------------------|
E|11111111-44444444----------11111111-| x2 |1111111111111111111-|

rest

Chorus x4
            
Submit corrections

comments powered by Disqus
↑ Back to top | Eisley Bass for A Sight To Behold. Lyrics for acoustic guitar and electric guitar. 1 Tablatures and chords are parodies/interpretations of the original songs. You may use it for private study, scholarship, research or language learning purposes only