» » »

Kein Wunder Bass tabs (ver.1)

Artists:  A B C D E F G H I J K L M N O P Q R S T U V W X Y Z # 

Kein Wunder Bass tabs (ver.1)

Eisbrecher
Rating:
0/5 (0 votes)

Hard to play? Try these video lessons and learn fast.
                Eisbrecher - Kein Wunder
(BASS)

Made by Eisenstein

Warning!
Some notes can be wrong places and wrong amount...so try to figure out it if ya can. 

Verse riff

		x2	
G|---------------------------------------|
D|---------------------------------------|
A|---------------------------------------|
D|2-22-2-22-2-22-2-22-8-88-8-88-8-88-8-88|
  
  ----------------------------------------------------|
  ----------------------------------------------------|
  ----------------------------------------------------|
  5-55-5-55-5-55-5-55-7-7-7-7-7-7-7-7-8-8-8-8-8-8-7-7-|
 

		x2	
G|----------------------------------------|
D|----------------------------------------|
A|----------------------------------------|
D|2-22-2-22-2-22-2-22-8-88-8-88-8-88-8-88-|

  ----------------------------------------------------|
  ----------------------------------------------------|
  ----------------------------------------------------|
  5-55-5-55-5-55-5-55-7-7-7-7-7-7-7-7-8-8-8-8-8-8-7-7-|
  

Chorus riff

		x2
G|------------------------------------------------------------|
D|------------------------------------------------------------|
A|2-2-2-0-2--2-2--2-2-2-2-2-2-0-2-3-3--3-3--3-0--0-0-0-0-0-0-0|
D|------------------------------------------------------------|

  -----------------------------------------------------------|
  -----------------------------------------------------------|
  2-2-2-0-2--2-2--2-2-2-2-2-2-0-2-3--5-5-5-5-5-5-7-7-7-7-7-7-|
  -----------------------------------------------------------|

  ---------------------------------------------------------|
  ---------------------------------------------------------|
  2-2-2-0-2--2-2--2-2-2-2-2-2-0-2--------------0-0-0-0-0-0-|
  ---------------------------------5-5-5-5-5-5-------------|

Bridge


		x3
G|----------------------------------------------------------------|
D|----------------------------------------------------------------|
A|----------------------------------------------------------------|
D|3-3-3-3-3-3-3-3-3-3-3-3-3-3-3-3-2-2-2-2-2-2-2-2-2-2-2-2-2-2-2-2-|

And then after bridge

		x2
  |------------------------------------|
  |------------------------------------|
  |------------------------------------|
  |22-2-2---22-2-2---22-2-2---22-2-2---|

Then chorus twice.


There ya go! remember to give me some sort of feedback.
            
Hard to play? Try these video lessons and learn fast. | Correct




comments powered by Disqus
↑ Back to top | Tablatures and chords are parodies/interpretations of the original songs. You may use it for private study, scholarship, research or language learning purposes only