» » »

Eisbrecher, Eiszeit Tabs (ver.1)

Artists:  A B C D E F G H I J K L M N O P Q R S T U V W X Y Z # 

Eiszeit Tabs (ver.1)

Eisbrecher Tabs
 Rating:
4/5 (6 votes)
Eiszeit lessons Tabs too difficult? Try these video lessons and learn fast
1
                ====================================================================
                        E I S B R E C H E R
                                 -
                         " E I S Z E I T "
====================================================================

                   Drop D Tuning, 1/2 Step Down
                         D# A# F# C# G# C#

                      -----------------------
                           Tempo: 92 bmp
                           Rythm: 4/4

====================================================================
Intro
====================================================================

||------------------------------|------------------------------||
||------------------------------|------------------------------||
||------------------------------|------------------------------||
||------------------------------|------------------------------||
||--12--12--12-12--12-12--------|--12--12--12-12--12-12--------||
||--12--12--12-12--12-12--------|--12--12--12-12--12-12--------||



====================================================================
Verse I [x2]
====================================================================

||-------------------------|-------------------------|
||-------------------------|-------------------------|
||*------------------------|-------------------------|
||*------------------------|-------------------------|
||--0--0--0-0--0-0----0-0--|--0--0--0-0--0-0----0-0--|
||--0--0--0-0--0-0----0-0--|--0--0--0-0--0-0----0-0--|
    PM---------------------------------------------|

|-------------------------|-------------------------||
|-------------------------|-------------------------||
|-------------------------|------------------------*||
|-------------------------|------------------------*||
|--0--0--0-0--0-0----0-0--|--10--10--10-10--10-8----||
|--0--0--0-0--0-0----0-0--|--10--10--10-10--10-8----||
   PM-------------------------------------------|



====================================================================
Chorus [x2]
====================================================================

||-----------|-----------|-----------|-----------||
||-----------|-----------|-----------|-----------||
||*----------|-----------|-----------|----------*||
||*-0--------|--5--------|--8--------|--7-------*||
||--0--------|--5--------|--8--------|--7--------||
||--0--------|--5--------|--8--------|--7--------||



====================================================================
End Chorus I
====================================================================

||------------------------------||
||------------------------------||
||------------------------------||
||------------------------------||
||--12--12--12-12--12-12--------||
||--12--12--12-12--12-12--------||



====================================================================
Verse II
====================================================================

||-------------------------|-------------------------|
||-------------------------|-------------------------|
||-------------------------|-------------------------|
||-------------------------|-------------------------|
||--0--0--0-0--0-0----0-0--|--0--0--0-0--0-0----0-0--|
||--0--0--0-0--0-0----0-0--|--0--0--0-0--0-0----0-0--|
    PM---------------------------------------------|

|-------------------------|-------------------------||
|-------------------------|-------------------------||
|-------------------------|-------------------------||
|-------------------------|-------------------------||
|--0--0--0-0--0-0----0-0--|--10--10--10-10--10-8----||
|--0--0--0-0--0-0----0-0--|--10--10--10-10--10-8----||
   PM-------------------------------------------|

||-------------------------|-------------------------|
||-------------------------|-------------------------|
||*------------------------|-------------------------|
||*------------------------|-------------------------|
||--0--0--0-0--0-0----0-0--|--0--0--0-0--0-0----0-0--|
||--0--0--0-0--0-0----0-0--|--0--0--0-0--0-0----0-0--|
    PM---------------------------------------------|

|-------------------------|-------------------------||
|-------------------------|-------------------------||
|-------------------------|-------------------------||
|-------------------------|-------------------------||
|-----0--0-0--0-0----0-0--|--10--10--10-10--10-8----||
|-----0--0-0--0-0----0-0--|--10--10--10-10--10-8----||
      PM----------------------------------------|



====================================================================
Repeat Chorus and then...
====================================================================

||--------------------------|--------------------------|
||--------------------------|--------------------------|
||--------------------------|--------------------------|
||--8--8--8--8--8--8--8--8--|--5--5--5--5--5--5--5--5--|
||--8--8--8--8--8--8--8--8--|--5--5--5--5--5--5--5--5--|
||--8--8--8--8--8--8--8--8--|--5--5--5--5--5--5--5--5--|

|--------------------------|----------------------------------|
|--------------------------|----------------------------------|
|--------------------------|----------------------------------|
|--0--0--0--0--0--0--0--0--|--10--10--10--10--10--10--10--10--|
|--0--0--0--0--0--0--0--0--|--10--10--10--10--10--10--10--10--|
|--0--0--0--0--0--0--0--0--|--10--10--10--10--10--10--10--10--|

|--------------------------|-------|
|--------------------------|-------|
|--------------------------|-------|
|--8--8--8--8--8--8--8--8--|--5----|
|--8--8--8--8--8--8--8--8--|--5----|
|--8--8--8--8--8--8--8--8--|--5----|
                              .

|--------------------------|----------------------------------|
|--------------------------|----------------------------------|
|--------------------------|----------------------------------|
|--0--0--0--0--0--0--0--0--|--10--10--10--10--10--10--10--10--|
|--0--0--0--0--0--0--0--0--|--10--10--10--10--10--10--10--10--|
|--0--0--0--0--0--0--0--0--|--10--10--10--10--10--10--10--10--|

|--------------------------|------------------------------||
|--------------------------|------------------------------||
|--------------------------|------------------------------||
|--8--8--8--8--8--8--8--8--|--7--7--7-7--7--7-7-----------||
|--8--8--8--8--8--8--8--8--|--7--7--7-7--7--7-7--7-7-7-7--||
|--8--8--8--8--8--8--8--8--|--7--7--7-7--7--7-7--7-7-7-7--||
                                                 PM-----|


=====
Break
=====



====================================================================
Repeat Chorus and then...
====================================================================

||--------------------------|--------------------------|
||--------------------------|--------------------------|
||*-------------------------|--------------------------|
||*-8--8--8--8--8--8--8--8--|--5--5--5--5--5--5--5--5--|
||--8--8--8--8--8--8--8--8--|--5--5--5--5--5--5--5--5--|
||--8--8--8--8--8--8--8--8--|--5--5--5--5--5--5--5--5--|

|--------------------------|----------------------------------||
|--------------------------|----------------------------------||
|--------------------------|---------------------------------*||
|--0--0--0--0--0--0--0--0--|--10--10--10--10--10--10--10--10-*||
|--0--0--0--0--0--0--0--0--|--10--10--10--10--10--10--10--10--||
|--0--0--0--0--0--0--0--0--|--10--10--10--10--10--10--10--10--||



====================================================================
End
====================================================================

||--------------------||
||--------------------||
||--------------------||
||--0--0--0-0--0-0----||
||--0--0--0-0--0-0----||
||--0--0--0-0--0-0----||
            
Submit corrections

comments powered by Disqus
↑ Back to top | Eisbrecher Tabs for Eiszeit. Lyrics for acoustic guitar and electric guitar. 1 Tablatures and chords are parodies/interpretations of the original songs. You may use it for private study, scholarship, research or language learning purposes only