» » »

Sabrina Bass tabs (ver.2)

Artists:  A B C D E F G H I J K L M N O P Q R S T U V W X Y Z # 

Sabrina Bass tabs (ver.2)

Einsturzende Neubauten
Rating:
0/5 (0 votes)

Hard to play? Try these video lessons and learn fast.
                There is like one bass riff all along the song, going as the following (for 
perfect timing check the song, it's very simple):

G:|--------------------|-----------------||
D:|--------------------|-----------------||
A:|--------1-----1h3p1-|-----------------||
E:|-3------------------|-1--------3------||

If you want to play the melody for making the bass more interesting, it goes like that:

G:|------------------|-------------------||
D:|---5--3-----------|---3--1--5~--------||
A:|---------5~-------|-------------------||
E:|-3----------------|-1-----------------||

h - hammer on,
p - pull off,
~ - vibrato.

Thank you.
            
Hard to play? Try these video lessons and learn fast. | Correct




comments powered by Disqus
↑ Back to top | Tablatures and chords are parodies/interpretations of the original songs. You may use it for private study, scholarship, research or language learning purposes only