» » »

Letztes Biest Am Himmel Bass tabs (ver.1)

Artists:  A B C D E F G H I J K L M N O P Q R S T U V W X Y Z # 

Letztes Biest Am Himmel Bass tabs (ver.1)

Einsturzende Neubauten
Rating:
0/5 (0 votes)

Hard to play? Try these video lessons and learn fast.
                As simple as most Einstuerzende Neubauten songs, just two bar-lengthy chords 
(written in brackets). Bass goes like that:

   (Gm)              (Cm)
G:|--------(5)------|-----------------||
D:|-3---------------|-----------------||
A:|-----------------|-3---------------||
E:|-----------------|-----------------||

When the thumping goes harder, bass just follows the rhythm:

   (Gm)              (Cm)
G:|-----------------|-----------------||
D:|-3-3-3-3-3-3-3-3-|-----------------||
A:|-----------------|-3-3-3-3-3-3-3-3-||
E:|-----------------|-----------------||

(x) - "ghost note" - can be omitted.

Thank you.
            
Hard to play? Try these video lessons and learn fast. | Correct




comments powered by Disqus
↑ Back to top | Tablatures and chords are parodies/interpretations of the original songs. You may use it for private study, scholarship, research or language learning purposes only