» » »

Hirnsage Bass tabs (ver.1)

Artists:  A B C D E F G H I J K L M N O P Q R S T U V W X Y Z # 

Hirnsage Bass tabs (ver.1)

Einsturzende Neubauten
Rating:
0/5 (0 votes)

Hard to play? Try these video lessons and learn fast.
                Einsturzende Neubauten
"Hirnsage"
 
an interesting short track from an early Neubauten album...someone came up with the term "Organic Industrial" music, and I love the idea.  
 
0:00
------------------|------------------|------------------|------------------
-6----------------|------------------|-6----------------|------------------
------------------|------------------|------------------|------------------
------------------|------------------|-4----------------|-4-------4--------
 
0:10
------------------|
-6-------6--------|
------------------|
------------------|
 
0:54
------------------|
-6---7-6---6------|
------------------|
---4--------------|
 
1:13
------------------|
-6-------6-666-6--|
------------------|
------------------|
 
1:15
------------------|
-6-66-6-6-66-6----|
------------------|
------------------|
 
1:30-end
------------------|
-6-6-6-6-6-6-6-6--|
------------------|
------------------|
 
Please note any corrections, I'm fishing through the rhythms toward the end of the song.
 -- Ben
            
Hard to play? Try these video lessons and learn fast. | Correct




comments powered by Disqus
↑ Back to top | Tablatures and chords are parodies/interpretations of the original songs. You may use it for private study, scholarship, research or language learning purposes only