» » »

Ein Seltener Vogel Bass tabs (ver.1)

Artists:  A B C D E F G H I J K L M N O P Q R S T U V W X Y Z # 

Ein Seltener Vogel Bass tabs (ver.1)

Einsturzende Neubauten
Rating:
0/5 (0 votes)

Hard to play? Try these video lessons and learn fast.
                There is just one bass riff appearing in various places. It goes like that (for timing, 
to the song):

G:|-----------------|-----------------||
D:|-0-----2-3-------|-------0---------||
A:|-----------------|-3---------------||
E:|-----------------|-----------------||

G:|-----------------|-----------------||
D:|-0-----2-3-------|-------0---------||
A:|-----------------|-3---------------||
E:|-----------------|-----------------||

Thank you.
            
Hard to play? Try these video lessons and learn fast. | Correct




comments powered by Disqus
↑ Back to top | Tablatures and chords are parodies/interpretations of the original songs. You may use it for private study, scholarship, research or language learning purposes only