» » »

Dragons Of The North Tabs (ver.1)

Artists:  A B C D E F G H I J K L M N O P Q R S T U V W X Y Z # 

Dragons Of The North Tabs (ver.1)

Einherjer
Rating:
2/5 (1 vote)

Hard to play? Try these video lessons and learn fast.
                          -=Einherjer 'Dragons of the North'=-
    -=from the 'Dragons of the North' album (1997)=-
            -=Version 1.2  17 November 2000=-





Legend:
. - palm muting
\ - slide
: - let ring
() - ghost note

Riff1a (clear)

 1,2,4 			          3
e--------------------------------|----------------------------
h-12-12-12-12--10-10-10----------|-10-10-10-10--8-8-8\7-7-7-7-
g-11-11-11-11--9--9--9---9-9-9-9-|-9--9--9--9---7-7-7\6-6-6-6-
d-9--9--9--9---7--7--7---9-9-9-9-|-7--7--7--7---5-5-5\4-4-4-4-
a------------------------7-7-7-7-|----------------------------
E--------------------------------|----------------------------

Riff1b(light distorsion)
e--------
h--------
g--------
d-9--9-9-
a-7--7-7-
E-0--0-0-

Riff1c(distorted)
e-----------------------------
h-----------------------------
g-9-9-9-9-9\7-7-7-7\6-6-6-6-6-
d-7-7-7-7-7\5-5-5-5\4-4-4-4-4-
a-----------------------------
E-----------------------------

Riff1a
w/lyrics
As blood for the wolves for riches and lust
Onward with hammers to chest
Villages burn, burn cities to dust
And for fun their torture the rest

Cold blue steel through a nice ladies breast
An avalanche of heathens set sail
To show the world which men is best
To conquer where others would fail

Chorus
 1,2                    3,4
e----------------------|---------------------------
h----------------------|---------------------------
g----------------------|---------------------------
d----------------------|---------------------------
a-9-9-9--9--10-10--9-9-|-10-10-10--10--12-12-10-10-
E-7-7-7--7--8--8---7-7-|-8--8--8---8---10-10-8--8--

w/lyrics
Dragons of the North

Riff1a(distorted)
w/lyrics
Odin is working to eagerly form
A great heathen fist from the north
Pray for your life when there's sign of a storm
But praying won't help when the dragons come forth

Roaming the bow, the berzerkers, the fierce
They know not fear nor pain
Women and children are swimming in tears
While the berzerkers are going insane

Chorus

Interlude:
                                1                   2
e------------------------------|-------------------|-------------------
h------------------------------|-------------------|-------------------
g------------------------------|-------------------|-------------------
d----------7-------------------|-------------------|-----------------4-
a-9-7-9-10---10-9-7-9-7-9-10-9-|-5-5-7-9-7-5-9-9-2-|-5-5-7-9-7-5-4-4-2-
E------------------------------|-------------------|---------------2---

e-----------------------------------------------------------
h-----------------------------------------------------------
g-----------------------------------9-11-12-11-9-11-9-------
d-9-9-11-12-11-9-11-11-9-9-11-12-12-------------------12-11-
a-----------------------------------------------------------
E-----------------------------------------------------------

e-----------------------------------------------------
h-----------------------------------------------------
g-(11)-12-9-11----9-----11-11-12-9-11----9------------
d--------------12---11----------------12---11-12-11-9-
a-----------------------------------------------------
E-----------------------------------------------------

e---------5--------------------------------------
h-7-5-7-8---8-7-5-7-5-7-8-7-7--3-3-5-7-5-3-7-7---
g----------------------------------------------4-
d------------------------------------------------
a------------------------------------------------
E------------------------------------------------

e-7-5-7-3-5-2-3-0-2-2-----------------------
h---------------------3-5-2-3-2-------------
g-------------------------------3-4---------
d-------------------------------------------
a-----------------------------------9-7-5-7-
E-----------------------------------7-5-3-5-

Riff2 + Riff1c
e----------------
h----------------
g----------------
d----------------
a-2-222-2222-2-2-
E-0-000-0000-0-0-
  . ... .... 

w/lyrics
Scholared embodied by blood at the mound
The clink of sword sound death chord
Bearslough and wolfsloughs are shaking the ground
Embraced by might, great northern horde

Odin, great warlord, I greet you with hail
this new god is weaker of class
Grant me thy power, your secrets unveil
And I'll kick this christ right in the ass

Chorus

E5 pm

Coda (add some palm muting):
e---------------------------------------------------------------------------------
h---------------------------------------------------------------------------------
g---------------------------------------------------------------------------------
d-9-11-12-11-9-7-9-4--9-11-12-11-9:\7--11-11-9-7-9-11-14-12-11--9-11-12--11-9-7-9-
a-7-9--10-9--7-5-7-2--7-9--10-9--7:\5--9--9--7-5-7-9--12-10-9---7-9--10--9--7-5-7-
E---------------------------------------------------------------------------------
            
Hard to play? Try these video lessons and learn fast. | Correct




comments powered by Disqus
↑ Back to top | Tablatures and chords are parodies/interpretations of the original songs. You may use it for private study, scholarship, research or language learning purposes only