>
 >
Esteem

Esteem Guitar Tabs

Eight Stops Seven - Esteem chords, tabs, tablatures, lyrics

Guitar lessons | Add/correct | Request | Top 50 tabs Artists:  A B C D E F G H I J K L M N O P Q R S T U V W X Y Z 0-9

Esteem Guitar Tabs – Eight Stops Seven

CD, Sheet music, Poster

Do you like Esteem? Share with your friends now
Tabs
8Stops7 - Esteem

This tab is pretty much based on the original version of the song as heard on 'Birth of a Cynic' but the revised version is still played the same way.

EADGBE

Intro

|--------------0-----------------------0----------------------|
|-----------------0-----------------------0-------------------|
|-----9-----------------9-----8-----------------8-------------|
|--------9-----------------------9----------------------------|
|--7--------7--------7-----6--------6--------6----------------|
|-------------------------------------------------------------|


|--------------0---------------------0------------------------|
|-----0-----------0------0--------------0---------------------|
|-------2------------2------2--------------2------------------|
|----------2-------------------2--------------2---------------|
|--0------------------------------0---------------------------|
|-------------------------------------------------------------|

(same as 1st line)
|--------------0-----------------------0----------------------|
|-----------------0-----------------------0-------------------|
|-----9-----------------9-----8-----------------8-------------|
|--------9-----------------------9----------------------------|
|--7--------7--------7-----6--------6--------6----------------|
|-------------------------------------------------------------|


|--------------0------------------------0---------------------|
|-----------------0-----0------------------------4------------|
|-----2--------------2---------4------------------------------|
|--------2------------------------4---------------------------|
|--0--------0---------------2--------2------------------------|
|-------------------------------------------------------------|

Verse
Strum These Chords - 1 Bar each

|--0--|--0--|--0--|--0--|--0--|--0--|--0--|--0--|
|--0--|--0--|--0--|--0--|--0--|--0--|--0--|--0--|
|--9--|--8--|--2--|--2--|--9--|--8--|--2--|--4--|
|--9--|--9--|--2--|--2--|--9--|--9--|--2--|--4--|
|--7--|--6--|--0--|--0--|--7--|--6--|--0--|--2--|
|-----|-----|-----|-----|-----|-----|-----|-----|

Chorus - 1 Bar of each
						 | 1st chorus plays to here
|--0--|--0--|--0--|--0--|--0--|--0--|--0--|--0--|--0--|--0--|
|--0--|--0--|--0--|--0--|--0--|--0--|--0--|--0--|--0--|--0--|
|--2--|--4--|--x--|--x--|--2--|--4--|--x--|--x--|--2--|--4--|
|--2--|--4--|--2--|--4--|--2--|--4--|--2--|--4--|--2--|--4--|
|--0--|--2--|--2--|--4--|--0--|--2--|--2--|--4--|--0--|--2--|
|-----|-----|--0--|--2--|-----|-----|--0--|--2--|-----|-----|


Post Chorus

'She's hides her reflection...'
|--------------------------------------------------------------------|
|--------------------------------------------------------------------|
|--9---9-9--9--9--9--7---7--7--7--7--7--5--5--5--5--5--5--5----------|
|--9---9-9--9--9--9--7---7--7--7--7--7--5--5--5--5--5--5--5-x heaps-|
|--7---7-7--6--6--6--5---5--5--4--4--4--3--3--3--3--3—-3--3----------|
|--------------------------------------------------------------------|

Bridge

'Hello, Hello, did you find your self - esteem...'
|--0--|--0--|--0--|--0--|
|--0--|--0--|--0--|--0--|
|--x--|--x--|--2--|--2--|
|--2--|--4--|--2--|--2--|
|--2--|--4--|--0--|--0--|
|--0--|--2--|-----|-----|

Then repeat verse playing under solo.

Solo

|-----------12F11-----------11-------------------------------------|
|--7^9--9-9-------12-10~--9----12-10~--------10~-------------------|
|--------------------------------------11^-9----------9-11-11^-9---|
|------------------------------------------------9H11--------------|
|------------------------------------------------------------------|
|------------------------------------------------------------------|


|---------------------------------12\\-----------------------------|
|--------------------------------------12\\--10-9~-----------------|
|--11F9-8--9-9/11-9-8-8H9-8----------------------------------------|
|---------------------------9/11-----------------------------------|
|------------------------------------------------------------------|
|------------------------------------------------------------------|


Intro
Verse x 2
1st Chorus (Shortened)
Verse x 2
Full Chorus
Post Chorus x 4
Bridge x 4
Solo
Verse x 2


If you have any comments or corrections, don't tell me 'cos I really don't care.

Chooka





Comments


Popular Eight Stops Seven tabs & chords
My Would Be Saviour Tabs
Regression Tabs
Satisfied Tabs
Satisfied 1 Tabs
Wider Tabs


Song lyrics



↑ Back to top | Tablatures and chords are parodies/interpretations of the original songs. You may use it for private study, scholarship, research or language learning purposes only
© 2014 AZChords.com Contact us | Privacy policy | DMCA | Add/correct tabs | Request tabs | Top 50 tabs