» » »

Eight Legs, Stay Cool Bass tabs (ver.1)

Artists:  A B C D E F G H I J K L M N O P Q R S T U V W X Y Z # 

Stay Cool Bass tabs (ver.1)

Eight Legs Tabs
 Rating:
4/5 (4 votes)
Stay Cool lessons Tabs too difficult? Try these video lessons and learn fast
1
                ----------------------------------------------------------------------------
                             Stay Cool – Eight Legs
----------------------------------------------------------------------------



 
Tuning: Standard

Intro:

G|-------------------------------------------------------------------|
D|-------------------------------------------------------------------|
A|-------------------------------------------------------------------|
E|-5-5-3-3-0—0-3-0-3-0--5-5-3-3-0-0-3-0-3-0--5-5-8-8-0—0-3-0-3-0--5--|

Verse:

G|-------------------------------------------------------------------|
D|-------------------------------------------------------------------|
A|-------------------------------------------------------------------|
E|-5-5-3-3-0—0-3-0-3-0--5-5-3-3-0-0-3-0-3-0--5-5-8-8-0—0-3-0-3-0--5--|

Chorus:

G|-------------------------------------------------------------------------|
D|-------------------------------------------------------------------------|
A|-33333333--------33333333--------33333333-----------------------------7--|
E|---------55555555--------55555555--------55555555---55555-0-55555-0------|


Verse:

G|-------------------------------------------------------------------|
D|-------------------------------------------------------------------|
A|-------------------------------------------------------------------|
E|-5-5-3-3-0—0-3-0-3-0--5-5-3-3-0-0-3-0-3-0--5-5-8-8-0—0-3-0-3-0--5--|

Chorus:

G|---------------------------------------------------------------------|
D|---------------------------------------------------------------------|
A|-33333333--------33333333--------33333333----------------------------|
E|---------55555555--------55555555--------55555555---55555-0-55555-0--|

G|-------------------------------------------------------------|
D|-------------------------------------------------------------|
A|-7-----------------------------------------------------------|
E|----3--5--8888888888888888--55555-0-55555-0-55555-0-55555-0--|

Solo:

G|-----------------------------------------|
D|-----------------------------------------|
A|-----------------------------------------|
E|-550-5550-5550-5550-5550-5550-5550-5550--|

Verse:

G|-------------------------------------------------------------------------|
D|-------------------------------------------------------------------------|
A|-------------------------------------------------------------------------|
E|-5-5-3-3-0—0-3-0-3-0--5-5-3-3-0-0-3-0-3-0--5-5-8-8-0—0-3-0-3-0--555555555|

Chorus:

G|---------------------------------------------------|
D|---------------------------------------------------|
A|-33333333--------33333333--------33333333----------|
E|---------55555555--------55555555--------55555555--|

G|---------------------------------------------------|
D|---------------------------------------------------|
A|-33333333--------33333333--------33333333----------|
E|---------55555555--------55555555--------55555555--|

G|-----------------------------|
D|-----------------------------|
A|-----------------------------|
E|-55555-0-55555-0-55555-0--5--|


| /  slide up
| \  slide down
| h  hammer-on
| p  pull-off
| ~  vibrato
| +  harmonic
| x  Mute note
============================================================================
            
Submit corrections

comments powered by Disqus
↑ Back to top | Eight Legs Bass for Stay Cool. Lyrics for acoustic guitar and electric guitar. 1 Tablatures and chords are parodies/interpretations of the original songs. You may use it for private study, scholarship, research or language learning purposes only