» » »

Eighties Matchbox B-Line Disaster, Pshychosis Safari Tabs (ver.1)

Artists:  A B C D E F G H I J K L M N O P Q R S T U V W X Y Z # 

Pshychosis Safari Tabs (ver.1)

Eighties Matchbox B-Line Disaster Tabs
 Rating:
4/5 (4 votes)
Pshychosis Safari lessons Tabs too difficult? Try these video lessons and learn fast
1
                pshychosis safari


eiGhties matchBox B-line disaster






e:----------------------------------------------------------------------------------------|
B:----------------------------------------------------------------------------------------|
G:----------------------------------------------------------------------------------------|
D:----------------------------------------------------------------------------------------|
A:-0-0--3--0-0-0--3--0-0-0--3--0-0-0--3--0-0-0--3--0-0-0--3--0-0-0--3--0-0-0--3--0-0-0--3-|
E:----------------------------------------------------------------------------------------|

e:-----------------------------------------|
B:-----------------------------------------|
G:-----------------------------------------|
D:-----------------------------------------|
A:-0-0--3--0-0-0--3--0---------------1-1-1-|
E:----------------------0-0--3--0-0--------|

e:-----------------------------------------|
B:-----------------------------------------|
G:-----------------------------------------|
D:-----------------------------------3-3-3-|
A:-0-0--3--0-0-0--3--0---------------1-1-1-|
E:----------------------0-0--3--0-0--------|


e:-------------------------------------------------------------------------------------|
B:-------------------------------------------------------------------------------------|
G:-4-4-4-4-4-4-4-4--5-5-5-5--3-3-3-3-3---7-7-7-7-7-7-7-7-7-7--9-9-9-9-9-9--10-10-10-10-|
D:-2-2-2-2-2-2-2-2--5-5-5-5--1-1-1-1-1---5-5-5-5-5-5-5-5-5-5--7-7-7-7-7-7--8--8--8--8--|
A:------------------3-3-3-3------------------------------------------------------------|
E:-------------------------------------------------------------------------------------|


e:---------------------0-0-3-0-|
B:---------------------0-0-3-0-|
G:-----------------------------|
D:-2-2--5--2-2-2--5--2---------|
A:-----------------------------|
E:-----------------------------|

e:--------------------------|
B:------------------1-1-4-1-|
G:------------------0-0-0-0-|
D:--------------------------|
A:-3-3--6--3-3-3-6----------|
E:--------------------------|

e:-------------------------3-3-|
B:-------------------------0-0-|
G:-------------------------0-0-|
D:-2-2--5--2-2-2--5--2---------|
A:-----------------------------|
E:---------------------0-0-----|

e:---------------------0-0-3-0-|
B:---------------------0-0-3-0-|
G:---------------------0-0-0-0-|
D:-2-2--5--2-2-2--5--2---------|
A:-----------------------------|
E:-----------------------------|

e:----------------------------------------------------------|
B:------------------1-1-4-1-----1-1-----1-1-----1--1--1--1--|
G:------------------0-0-0-0-----0-0-----0-0-----0--0--0--0--|
D:----------------------------------------------------------|
A:-3-3--6--3-3-3-6----------3-3-----3-3-----3-3-------------|
E:----------------------------------------------------------|

e:-----------------------------------------|
B:-----------------------------------------|
G:-----------------------------------------|
D:-----------------------------------3-3-3-|
A:-0-0--3--0-0-0--3--0---------------1-1-1-|
E:----------------------0-0--3--0-0--------|

e:-------------------------------------------------------------------------------------|
B:-------------------------------------------------------------------------------------|
G:-4-4-4-4-4-4-4-4--5-5-5-5--3-3-3-3-3---7-7-7-7-7-7-7-7-7-7--9-9-9-9-9-9--10-10-10-10-|
D:-2-2-2-2-2-2-2-2--5-5-5-5--1-1-1-1-1---5-5-5-5-5-5-5-5-5-5--7-7-7-7-7-7--8--8--8--8--|
A:------------------3-3-3-3------------------------------------------------------------|
E:-------------------------------------------------------------------------------------|

solo
   Bar                     viBrato Bar                                  try to do this part 
:------\--------------/--------------------------------------------------------------------|
:--------\-----------/-----------------------------8-10--11-8------------------------------|
:-9-----(9)-\-------/------9~~~~~~~~~~~~~~~~---9-9-------------7h9~~~~~~--99-88-77-66-55-44|
:-------------\----/-----------------------------------------------------------------------|
:---------------\-/------------------------------------------------------------------------|
:------------------------------------------------------------------------------------------|

like hammer and pull
e:------------------------------------------------5-9-7---------------------------------|
B:--------------------------8-10-10-10B--8--8-5-7---------------------------------------|
G:-3-3-2-2-1-1--0-0---9~~~~------------------------------9~~~~~~~/17\----8B~~~~~~~~~~~~-|
D:--------------------------------------------------------------------------------------|
A:--------------------------------------------------------------------------------------|
E:--------------------------------------------------------------------------------------|

e:----------------------------------------------------------|
B:------------------1-1-4-1-----1-1-----1-1-----1--1--1--1--|
G:------------------0-0-0-0-----0-0-----0-0-----0--0--0--0--|
D:----------------------------------------------------------|
A:-3-3--6--3-3-3-6----------3-3-----3-3-----3-3-------------|
E:----------------------------------------------------------|


e:-----------------------------------------|
B:-----------------------------------------|
G:-----------------------------------------|
D:-----------------------------------3-3-3-|
A:-0-0--3--0-0-0--3--0---------------1-1-1-|
E:----------------------0-0--3--0-0--------|
            
Submit corrections

comments powered by Disqus
↑ Back to top | Eighties Matchbox B-Line Disaster Tabs for Pshychosis Safari. Lyrics for acoustic guitar and electric guitar. 1 Tablatures and chords are parodies/interpretations of the original songs. You may use it for private study, scholarship, research or language learning purposes only