>
 >
Celebrate Your Mother 1

Celebrate Your Mother 1 Guitar Tabs

Eighties Matchbox B-Line Disaster - Celebrate Your Mother 1 chords, tabs, tablatures, lyrics

Guitar lessons | Add/correct | Request | Top 50 tabs Artists:  A B C D E F G H I J K L M N O P Q R S T U V W X Y Z 0-9

Celebrate Your Mother 1 Guitar Tabs – Eighties Matchbox B-Line Disaster

CD, Sheet music, Poster

Do you like Celebrate Your Mother 1? Share with your friends now
Bass TabsTabsTabs v2
EIGHTIES MATCHBOX B-LINE DISASTER
     ~Celebrate Your Mother~

24/1/03

Order
Verse 1
First Riff x 2
Verse 2
Second Riff
Verse 3
Third Riff x 1
First Riff x 1
Verse 4
Long Bit
Second Riff x 2
Verse 5
Second Riff x 2
End on

 Bass Intro (Plays all the way through probably)
G---------------------------------------------------------------
D---------------------------------------------------------------
A---------------------------------------------------------------
E-0-0-0-0--3-0-0-0--0-0-0-0--0-0-0-0--0-0-0-0--3-3-3-3-2-2-2-2--

 Verse 1 - Gtr 1
e--0------------0------------0------------
B--0------------0------------0--r---------
G--1----4-3-----1----4-3-4---1--e--3--4---
D--2----5-4-----2----5-4-5---2--s--4--5---
A--2----5-4-----2----5-4-5---2--t--4--5---
E--0----3-2-----0----3-2-3---0-----2--3---

 First Riff Gtr 1
e-----------------------------------------------------
B-----------------------------------------------------
G-----------------------------------------------------
D-----------------------------------------------------
A-----------------------------------------------------
E--0-3-0-3-0-3-0--0-3-0-3-0-3-0-3-3-3-3-3-2-2-2-2-2---

 First Riff Gtr 2 - Basically backs up gtr 1's riff
e-----------------------------------------------------
B-----------------------------------------------------
G-------------------------------4-4-4-4-4-3-3-3-3-3---
D-------------------------------5-5-5-5-5-4-4-4-4-4---
A-------------------------------5-5-5-5-5-4-4-4-4-4---
E-------------------------------3-3-3-3-3-2-2-2-2-2---

 Verse 2 - Gtr 1
e--0------------
B--0------------
G--1----4-3-4---
D--2----5-4-5---
A--2----5-4-5---
E--0----3-2-3---

 Verse 2 - Gtr 2 (directly After gtr 1)
e-----------------------------------------------------
B-----------------------------------------------------
G-----------------------------------------------------
D-----------------------------------------------------
A-----------------------------------------------------
E--3-3-0-3-0-3-0-3-0-0-0-0-0-2-3-3-3-3-3-2-2-2-2-2----

Gtr 2 plays left hand mute on open strings

 Second Riff Gtr 1 
e-----------------------------------------------------
B-----------------------------------------------------
G-----------------------------------------------------
D-----------------------------------------------------
A-----------------------------------------------------
E--3-3-0-3-0-3-0-3-0-0-0-0-0-2-3-3-3-3-3-2-2-2-2-2----

 Verse 3 - Gtr 1
e--0------------0----------
B--0------------0----------
G--1----4-3-----1----4-3-4-
D--2----5-4-----2----5-4-5-
A--2----5-4-----2----5-4-5-
E--0----3-2-----0----3-2-3-

 Gtr 2 - after Gtr 1
e-----------------------------------------------------
B-----------------------------------------------------
G-----------------------------------------------------
D-----------------------------------------------------
A-----------------------------------------------------
E--3-3-0-3-0-3-0-3-0-0-0-0-0-2-3-3-3-3-3-2-2-2-2-2----

 Third Riff
e---------------------------------------------------
B---------------------------------------------------
G---------------------------------------------------
D--2-2-0-2--5-4-5-4-2-0-2--0------------------------
A---------------------------------------------------
E-----------------------------3-3-3-3-3-2-2-2-2-2---

 Verse 4 - Gtr 1
e--0------------0------------0---
B--0------------0------------0---
G--1----4-3-----1----4-3-----1---
D--2----5-4-----2----5-4-----2---
A--2----5-4-----2----5-4-----2---
E--0----3-2-----0----3-2-----0---

Long Bit - Gtr 1
e--------------------------------------------------------------------------------
B--------------------------------------------------------------------------------
G--------------------------------------------------------------------------------
D----0---0---2---2---2------0---0---0---2---2------5---5------------4----4-------
A---2-2---2---2---2---2----2-2---2---2---2---2----5-5---5----------4-4----4------
E--0---0---0---0---0------0---0---0---0---0---0--3---3---3---etc--2---2----2-etc-

Long Bit - Gtr 2 - Based around these notes
e--------------------------
B--12-12-12----14--15--17--
G--------------------------
D--------------------------
A--------------------------
E--------------------------

 Verse 5 - Gtr 1
e--0------------0----------
B--0------------0----------
G--1----4-3-----1----4-3-4-
D--2----5-4-----2----5-4-5-
A--2----5-4-----2----5-4-5-
E--0----3-2-----0----3-2-3-

End on:
e--------------------------------------
B--------------------------------------
G--1-----------------------------------
D--2-----------------------------------
A--2-----------------------------------
E--0-----------------------------------





Comments


Popular Eighties Matchbox B-Line Disaster tabs & chords
Chicken Bass Tabs
Morning Has Broken Bass Tabs
Drunk On The Blood Chords
Chicken Tabs
Mr Mental Tabs
Pshychosis Safari Tabs
Pshychosis Safari 1 Tabs
Psychosis Safari Tabs
So Long Goodbye Tabs
Whack Of S Tabs


Song lyrics



↑ Back to top | Tablatures and chords are parodies/interpretations of the original songs. You may use it for private study, scholarship, research or language learning purposes only
© 2014 AZChords.com Contact us | Privacy policy | DMCA | Add/correct tabs | Request tabs | Top 50 tabs