» » »

Eighties Matchbox B-Line Disaster, Celebrate Your Mother Tabs (ver.1)

Artists:  A B C D E F G H I J K L M N O P Q R S T U V W X Y Z # 

Celebrate Your Mother Tabs (ver.1)

Eighties Matchbox B-Line Disaster Tabs
 Rating:
4/5 (6 votes)
Celebrate Your Mother lessons Tabs too difficult? Try these video lessons and learn fast
                e|----------------------------------------------------|
B|----------------------------------------------------|
G|----------------------------------------------------|
D|----------------------------------------------------|
A|----------------------------------------------------|
E|-0-0-0-0-3-0-0-0-0-0-0-0-0-0-0-0-0-0-3-3-3-3-2-2-2-2|

e|-0---3--2--3---0--3--2--3----------2-3-------------------------|
B|-0---3--2--3---0--3--2--3----------2-3-------------------------|
G|-1---4--3--4---1--4--3--4----------3-4-------------------------|
D|-2---5--4--5---2--5--4--5----------4-5-------------------------|
A|-2---5--4--5---2--5--4--5----------4-5-------------------------|
E|-0---3--2--3---0--3--2--3----------2-3-------------------------|

e|------------------------------3333333322222222---------------------------|
B|------------------------------3333333322222222---------------------------|
G|------------------------------4444444433333333---------------------------|
D|------------------------------5555555544444444---TIMES 2-----------------|
A|------------------------------5555555544444444---------------------------|
E|-0-3p0-3p0-3p0-(0)00 3p0-3p0--3333333322222222---------------------------|

e|-0---3--2--3---|-------------------33333323222222222----------------------|
B|-0---3--2--3---|-------------------33333333222222222----------------------|
G|-1---4--3--4---|-------------------44444444433333333-----TIMES 2----------|
D|-2---5--4--5---|-------------------55555555544444444----------------------|
A|-2---5--4--5---|-------------------55555555544444444----------------------|
E|-0---3--2--5---|-3-3P0-3P0-3P0-3P0-33333333322222222----------------------|

e|-0---3---2---0---3---2--------3-2---------------------------------------|
B|-0---3---2---0---3---2--------3-2---------------------------------------|
G|-1---4---3---1---4---3--------4-3---------------------------------------|
D|-2---5---4---2---5---4--------5-4---------------------------------------|
A|-2---5---4---2---5---4--------5-4---------------------------------------|
E|-0---3---2---0---3---2--------3-2---------------------------------------|

e|-------------------------3333322222----------------------------------|
B|-------------------------3333322222----------------------------------|
G|-------------------------4444433333----------------------------------|
D|-2-2P0H2P0-5-5-4-4-2P0H--5555544444---------------------CHORDY BIY---|
A|-------------------------5555544444----------------------------------|
E|-------------------------3333322222-0-3P0-3P0-3P000-3P0-3P0----------|

THATS ALL I KNOW
            
Submit corrections

comments powered by Disqus
↑ Back to top | Eighties Matchbox B-Line Disaster Tabs for Celebrate Your Mother. Lyrics for acoustic guitar and electric guitar. Tablatures and chords are parodies/interpretations of the original songs. You may use it for private study, scholarship, research or language learning purposes only