>
 >
The Psychotic Thought That Satan Gave Jesus

The Psychotic Thought That Satan Gave Jesus Guitar Tabs

Eighteen Visions - The Psychotic Thought That Satan Gave Jesus chords, tabs, tablatures, lyrics

Guitar lessons | Add/correct | Request | Top 50 tabs Artists:  A B C D E F G H I J K L M N O P Q R S T U V W X Y Z 0-9

The Psychotic Thought That Satan Gave Jesus Guitar Tabs – Eighteen Visions

CD, Sheet music, Poster

Do you like The Psychotic Thought That Satan Gave Jesus? Share with your friends now
Tabs
EIGHTEEN VISIONS - THE PSYCHOTIC THOUGHT THAT SATAN GAVE JESUS

    Db|-------x3--------|-----------------------|
    Ab|-----------------|-----------------------|
GTR  E|-----------------|-----------------------|    
 1   B|-----------------|-------4-------1-------|              
    Gb|-0-0-0-8-9-0-0-0-|-4-5-4---4-3-1---------|
     B|-0-0-0-8-9-0-0-0-|-4-5-4---4-3-1---------|
          P M     P M PM  P M PM  P M PM

    Db|-------x3--------|-----------------------|
    Ab|-----------------|-----------------------|
GTR  E|-----------------|-----------------------|    
 2   B|-------8-9-------|-------4-------1-------|              
    Gb|-0-0-0-----0-0-0-|-4-5-4---4-3-1---------|
     B|-0-0-0-----0-0-0-|-4-5-4---4-3-1---------|
          P M     P M PM  P M PM  P M PM

    Db|-------------------------------------------------|
    Ab|-------------------------------------------------|
GTR  E|-8888-7777-6666/7777-8-8-8-8/7777------4---------|    
 1   B|-------------------------------------------------|              
    Gb|-----------4444/5555---------------4-5---4-3-1-0-|
     B|-----------------------------------4-5---4-3-1-0-|

    Db|---------------------------------------------------|
    Ab|---------------------------------------------------|
GTR  E|---------------------------------------------------|    
 2   B|---------------------10101010-9999-----------------|              
    Gb|-----------------------------------4-5-0-4-5-1-0-1-|
     B|-----------------------------------4-5-0-4-5-1-0-1-|

    Db|----------------------------------------------------|
    Ab|----------------------------------------------------|
GTR  E|-8888-7777-6-6-6-6/7-7-7-7-8-8-8-8/7777-------------|    
 1   B|--------------------------------------------4-----1-|              
    Gb|-----------4-4-4-4/5-5-5-5--------------454---431---|
     B|----------------------------------------454---431---|

    Db|--------------------------------------------------|
    Ab|--------------------------------------------------|
GTR  E|--------------------------------------------------|    
 2   B|-----------------4-------1-10101010-9999----------|              
    Gb|-----------------------------------------45045101-|
     B|-----------4-5-4---4-3-1-----------------45045101-|

    Db|-------x3--------|-----------------------|
    Ab|-----------------|-----------------------|
GTR  E|-----------------|-----------------------|    
 1   B|-----------------|-------4-------1-------|              
    Gb|-0-0-0-8-9-0-0-0-|-4-5-4---4-3-1---------|
     B|-0-0-0-8-9-0-0-0-|-4-5-4---4-3-1---------|
          P M     P M PM  P M PM  P M PM

    Db|-------x3--------|-----------------------|
    Ab|-----------------|-----------------------|
GTR  E|-----------------|-----------------------|    
 2   B|-------8-9-------|-------4-------1-------|              
    Gb|-0-0-0-----0-0-0-|-4-5-4---4-3-1---------|
     B|-0-0-0-----0-0-0-|-4-5-4---4-3-1---------|
          P M     P M PM  P M PM  P M PM

    Db|----------------------------------------|
    Ab|----------------------------------------|
GTR  E|----------------------------------------|    
1+2  B|----------------------------------------| x3              
    Gb|-3-3-3-3-2-2-2-2-6-6-6-6-1-1-1-1--------|
     B|-3-3-3-3-2-2-2-2-6-6-6-6-1-1-1-1--------|


    Db|----------------------------------------|
    Ab|----------------------------------------|
GTR  E|----------------------------------------|    
 1   B|----------------------------------------|               
    Gb|-3-3-3-3-2-2-2-2-6-6-6-6-1-1-1-1--------|
     B|-3-3-3-3-2-2-2-2-6-6-6-6-1-1-1-1--------|

    Db|----------------------------------------|
    Ab|----------------------------------------|
GTR  E|-10101010--9999-13131313-8-8-8-8--------|    
 2   B|----------------------------------------|              
    Gb|----------------------------------------|
     B|----------------------------------------|

    Db|----------------------------------------|
    Ab|----------------------------------------|
GTR  E|----------------------------------------|    
1+2  B|-3----2-----6----1----------------------|              
    Gb|-3----2-----6----1----------------------|
     B|-3----2-----6----1----------------------|

    Db|----------------------------------------|
    Ab|----------------------------------------|
GTR  E|----------------------------------------|    
1+2  B|-3----2-----6----1----------------------|              
    Gb|-3----2--00-6----1---1-1----------------|
     B|-3----2--00-6----1---1-1----------------|
                PM          P M

    Db|----------------------------------------|
    Ab|----------------------------------------|
GTR  E|----------------------------------------|    
1+2  B|-3-------2-------6-------1--------------|              
    Gb|-3-------2-------6-------1--------------|
     B|-3-------2-------6-------1--------------|

    Db|----------------------------------------|
    Ab|----------------------------------------|
GTR  E|----------------------------------------|    
 1   B|----------------------------------------|              
    Gb|----------------------------------------|
     B|-3333-2222-6666-2222-3333-5555-6666-----|

    Db|----------------------------------------|
    Ab|----------------------------------------|
GTR  E|----------------------------------------|    
1+2  B|-3----2-----6----1----------------------|              
    Gb|-3----2-----6----1----------------------|
     B|-3----2-----6----1----------------------|

    Db|----------------------------------------|
    Ab|----------------------------------------|
GTR  E|--------------------------4h5p4h5p3-----|    
 1   B|----------------------------------------|              
    Gb|-/13-1---4--3--1--2---------------------|
     B|-/13-1---4--3--1--2---------------------|
                PM PM PM 

    Db|----------------------------------------|
    Ab|----------------------------------------|
GTR  E|------------------4---------------------|    
 2   B|------------------3---------------------|              
    Gb|-/13-1---4--3--0--2---------------------|
     B|-/13-1---4--3--0--3---------------------|
                PM PM

    Db|-------------------------------------------------|
    Ab|-------------------------------------------------|
GTR  E|---5-5---5-5---5-1/12/13---6-6---6-6---6-1/12/13-|    
1+2  B|---4-4---4-4---4-----------5-5---5-5---5---------|              
    Gb|-0-----0-----0-----------0-----0-----0-----------|
     B|-0-----0-----0-----------0-----0-----0-----------|
        PM    PM    PM          PM    PM    PM

    Db|-------------------------------------------------|
    Ab|-------------------------------------------------|
GTR  E|---7-7---7-7---7-1/12/13---8-8---8-8---8-1/12/13-|    
1+2  B|---6-6---6-6---6-----------7-7---7-7---7---------|              
    Gb|-0-----0-----0-----------0-----0-----0-----------|
     B|-0-----0-----0-----------0-----0-----0-----------|
        PM    PM    PM          PM    PM    PM

    Db|-----------------------------------|
    Ab|-----------------------------------|
GTR  E|-----------------------------------|    
1+2  B|---------------------------5h6p5---|              
    Gb|-0-0-0-0-0-0-0-0-0-0-1-3-1-------6-|
     B|-0-0-0-0-0-0-0-0-0-0-1-3-1---------|
        P M P M P M P M P M P M PM
   
    Db|-------------------------------------------------|
    Ab|-------------------------------------------------|
GTR  E|-7-7-7-7-7-7-8-8-8-8-8-8-3-3-3-3-3-3-2-2-2-2-2-2-|    
1+2  B|-------------------------------------------------|              
    Gb|-5-5-5-5-5-5-5-5-5-5-5-5-1-1-1-1-1-1-1-1-1-1-1-1-|
     B|-------------------------------------------------|

    Db|---------------------------------|
    Ab|---------------------------------|
GTR  E|-5-5-5-5-5-5-5-5-6-6-6-6-6-6-6-6-|    
1+2  B|-3-3-3-3-3-3-3-3-3-3-3-3-3-3-3-3-|              
    Gb|-4-4-4-4-4-4-4-4-4-4-4-4-4-4-4-4-|
     B|---------------------------------|

    Db|-----------------------------------|
    Ab|-----------------------------------|
GTR  E|-----------------------------------|    
1+2  B|---------------------------5h6p5---|              
    Gb|-0-0-0-0-0-0-0-0-0-0-1-3-1-------6-|
     B|-0-0-0-0-0-0-0-0-0-0-1-3-1---------|
        P M P M P M P M P M P M PM

    Db|-----------------------------------------------|
    Ab|-----------------------------------------------|
GTR  E|-----------------------------------------------|    
 1   B|-----------------------------------------------|              
    Gb|-000--000--000--000---000--000--000--431310134-|
     B|-000--000--000--000---000--000--000--431310134-|
        P M  P M  P M  P M   P M  P M  P M  PMPMPMPMPM

    Db|--------------------------------------------------|
    Ab|----------------------------------------------3PH-|
GTR  E|--------------------------------------------------|    
 1   B|--------------------------------------------------|              
    Gb|-000--000--000--000---000--000--000--43131013-----|
     B|-000--000--000--000---000--000--000--43131013-----|
        P M  P M  P M  P M   P M  P M  P M  PMPMPMPM 

    Db|----------------------------------------------|
    Ab|------------------------------------------3PH-|
GTR  E|----------------------------------------------|    
 2   B|----------------------------------------------|              
    Gb|-0--0--0--0------0--0--0--4-3-1-3-1-0-1-3-----|
     B|-0--0--0--0------0--0--0--4-3-1-3-1-0-1-3-----|
        P  M  P  M      P  M  PM P M P M P M P M 

    Db|---------------------------------|
    Ab|---------------------------------|
GTR  E|-7-7-7-7-8-8-8-8-6-6-6-6-6-6-6-6-|    
 1   B|---------------------------------|              
    Gb|-5-5-5-5-5-5-5-5-5-5-5-5-5-5-5-5-|
     B|---------------------------------|

    Db|-------------------------------------------------|
    Ab|-------------------------------------------------|
GTR  E|-4-4-4-4-4-4-4-4-3-3-3-3-3-3-3-3-2-2-2-2-2-2-2-2-|    
 1   B|-4-4-4-4-4-4-4-4-3-3-3-3-3-3-3-3-2-2-2-2-2-2-2-2-|              
    Gb|-3-3-3-3-3-3-3-3-2-2-2-2-2-2-2-2-1-1-1-1-1-1-1-1-|
     B|-2-2-2-2-2-2-2-2-1-1-1-1-1-1-1-1-0-0-0-0-0-0-0-0-|

    Db|--------------------------------------------|
    Ab|--------------------------------------------|
GTR  E|--------------------------------------------|    
 1   B|--------------------------------------------|              
    Gb|-0--0--0--0------0--0--0--4-3-1-3-1-0-1-3-4-|
     B|-0--0--0--0------0--0--0--4-3-1-3-1-0-1-3-4-|
        P  M  P  M      P  M  PM P M P M P M P M PM

    Db|----------------------------------------------|
    Ab|------------------------------------------3PH-|
GTR  E|----------------------------------------------|    
 2   B|----------------------------------------------|              
    Gb|-0--0--0--0------0--0--0--4-3-1-3-1-0-1-3-----|
     B|-0--0--0--0------0--0--0--4-3-1-3-1-0-1-3-----|
        P  M  P  M      P  M  PM P M P M P M P M 

END





Comments


Popular Eighteen Visions tabs & chords
Our Darkest Days Bass Tabs
Tower Of Snakes Bass Tabs
Of Ain Tabs
Pretty Suicide Tabs
Revolutionizing The Sound Of Music 1 Tabs
Sonic Death Monkey Tabs
Tower Of Snakes Tabs
Victim Tabs
Victim 3 Tabs
Said And Done Ukulele


Song lyrics



↑ Back to top | Tablatures and chords are parodies/interpretations of the original songs. You may use it for private study, scholarship, research or language learning purposes only
© 2014 AZChords.com Contact us | Privacy policy | DMCA | Add/correct tabs | Request tabs | Top 50 tabs