» » »

Eighteen Visions, Sonic Death Monkey Tabs (ver.1)

Artists:  A B C D E F G H I J K L M N O P Q R S T U V W X Y Z # 

Sonic Death Monkey Tabs (ver.1)

Eighteen Visions Tabs
 Rating:
4/5 (4 votes)
Sonic Death Monkey lessons Tabs too difficult? Try these video lessons and learn fast
                Band- Eighteen Visions
Song- Sonic Deatyh Monkey

Tune to Dropped B (B Gb B E Ab Db)
I'm too lazy to put in palm muting, just listen to the song to see when to mute.
One of these* means the notes in the riff are played more than once.
Intro/Chorus ("red lights gleaming...")
|--------------------------------|*
|--------------------------------|
|--------------------------------|
|-------5-----6-5----------------|
|-7--4--3--4--4-3-7--4--3--4--1--|
|-7--4-----4------7--4--3--4--1--|

("For you I will not lust...")
|---------------------|
|---------------------|
|---------------------|
|---------------------|
|-4-3-1-4-3-1-4-3-0-1-|
|-4-3-1-4-3-1-4-3-0-1-|not sure if this riff is right...

("Which way should I go?...")("I can't take it back...")
|-----------------|        |--------------------------------|
|-----------------|        |--------------------------------|
|-----------------|        |--------------------------------|
|-----------------|        |-----------------6--------------|
|-7-4-3-4-1--0-1--|        |-----------------5--------------|
|-7-4-3-4-1--0-1--|        |-7-7-4-4-3-3-4-4----1-1-1-1-1-1-|

Just before the clean part...       Clean part
|-----------------------------------|-1---1-----|-1---|-2---2-----|-2---|
|-----------------------------------|---2---2---|---2-|---3---3---|---3-|
|-----------------------------------|---------3-|-----|---------3-|-----|
|-------5-----6-5-------------------|-----------|-----|-----------|-----|
|-7--4--3--4--4-3-7--4--3--4--5--7--|----x2-----|-----|-----x2----|-----|
|-7--4-----4------7--4--3--4--5--7--|-----------|-----|-----------|-----|
                                        I'm pretty sure this part is a little off.
("Lay me down...")       ("Can't stop the way i feel...")
|-----------------------|------------------|---------------|
|-----------------------|------------------|---------------|
|-----------------------|------------------|---------------|
|-0--7--3----0--7--8----|-8---3---4---6----|---------------|
|-0--7--3----0--7--8----|-8---3---4---6----|-4-3-0-3-2-0-1-|
|-0--7--3----0--7--8----|-8---3---4---6----|-4-3-0-3-2-0-1-|
                                ("Make me out...")
|-------------------------------|------------|------------|
|-------------------------------|-----x3-----|------------|
|-------------------------------|------------|---------10-|
|-------------------------------|----2----2--|----2-------|
|-4-3-----2------4-3---2--0-0-0-|-1--0--1-0--|-1--0--1-8--|
|-4-3-0-0-2--0-0-4-3-0-2--0-0-0-|-1-----1----|-1-----1----|

("For now I'll weep and wallow...)          ("...to be the one.")
|-----------------------------|------------|-------------------|
|-----------------------------|-----x3-----|-------------------|
|-----------------------------|------------|-------------------|
|-----------------------------|----2----2--|-------------------|
|-4-3----2------4-3---2---0-0-|-1--0--1-0--|-4--3--1-4--0--3-2-|
|-4-3-0--2--0-0-4-3-0-2---0-0-|-1-----1----|-4--3--1-4--0--3-2-|
            
Submit corrections

comments powered by Disqus
↑ Back to top | Eighteen Visions Tabs for Sonic Death Monkey. Lyrics for acoustic guitar and electric guitar. Tablatures and chords are parodies/interpretations of the original songs. You may use it for private study, scholarship, research or language learning purposes only