>
 >
Raping, Laughing, Tasting, Temptation

Raping, Laughing, Tasting, Temptation Guitar Tabs

Eighteen Visions - Raping, Laughing, Tasting, Temptation chords, tabs, tablatures, lyrics

Guitar lessons | Add/correct | Request | Top 50 tabs Artists:  A B C D E F G H I J K L M N O P Q R S T U V W X Y Z 0-9

Raping, Laughing, Tasting, Temptation Guitar Tabs – Eighteen Visions

CD, Sheet music, Poster

Do you like Raping, Laughing, Tasting, Temptation? Share with your friends now
Tabs
EIGHTEEN VISIONS - RAPING.LAUGHING.TASTING.TEMPTATION

    Db|------------------------------------------------------|
    Ab|------------------------------------------------------|
GTR  E|------------------------------------------------------|    
 1   B|------------------------------------------------------|              
    Gb|-----666555---777666---------666555-----4-3-1-3-4-3-1-|
     B|-6666------777------888777666------7777-4-3-1-3-4-3-1-|
                                               P M P M P M PM

    Db|---------------------- x5 -----------------------------|
    Ab|-------------------------------------------------------|
GTR  E|-------------------------------------------------------|    
 1   B|-------------------------------------------------------|              
    Gb|-----6665555---777666---------666555-----4-3-1-3-4-3-1-|
     B|-6666-------777------888777666------7777-4-3-1-3-4-3-1-|
                                                P M P M P M PM

    Db|---------------------- x5 ----------------------------|
    Ab|----999888---101010999---------999888-----------------|
GTR  E|-666------777---------888777666------777--------------|    
 2   B|------------------------------------------------------| 
    Gb|----------------------------------------4-3-1-3-4-3-1-|
     B|----------------------------------------4-3-1-3-4-3-1-|
                                               P M P M P M PM

on fourth time play the riff super fast

    Db|--------------------- x4 ----------------------------------|
    Ab|-----------------------------------------------------------|
GTR  E|-----------------------------------------------------------|    
1+2  B|-----1-1-0-0-----2-2-1-1-----------1-1-0-0-----------------|          
    Gb|-0-0---------0-0---------1h2p1-0-0---------0-0-1-1-0-1-1-0-|
     B|-0-0---------------------------0-0-------------1-1-0-1-1-0-|
        P M P M P M P M P M P M       P M P M P M P M P M   P M
    
    Db|---------------------------------------------------------|
    Ab|---------------------------------------------------------|
GTR  E|-------------------4h5-----------------------------------|    
1+2B  |---------------------------------------------------------|              
    Gb|00-2-0-2h3-0-3p2-0-----3-2----00-2-0-2h3-00-4-3-1-3-4-3-1|
     B|00-2-0-2h3-0-3p2-0-----3-2-1BD00-2-0-2h3-00-4-3-1-3-4-3-1|
       PM   PM    PM    PM    P M    PM   PM   PM P M P M P M PM
    
    Db|--------------------------------------------|
    Ab|--------------------------------------------|
GTR  E|--------------------------------------------|    
1+2  B|--------------------------------------------| x3              
    Gb|-0020-2h3-0-3p2-030-----1-0020-2h3-004313431|
     B|-0020-2h3-0-3p2-030-2BD-1-0020-2h3-004313431|
        PM PM    PM    PMPM      PMPM     PMPMPMPMPM

    Db|------------------------------------------------|
    Ab|------------------------------------------------|
GTR  E|------------------------------------------------|    
1+2  B|-0---4---1---0---3---1---0---1------------------|              
    Gb|-0---4---1---0---3---1---0---1--0-0-0-0-0-0-0-0-|
     B|-0---4---1---0---3---1---0---1--0-0-0-0-0-0-0-0-|
                                       P M P M P M P M

    Db|------------------------------------------------|
    Ab|------------------------------------------------|
GTR  E|------------------------------------------------|    
1+2  B|-0---4---1---0---3---1---0---1------------------|              
    Gb|-0---4---1---0---3---1---0---1--0-0---0-0---0---|
     B|-0---4---1---0---3---1---0---1--0-0---0-0---0---|
                                       PM    P M   PM

    Db|------------------------------------------------|
    Ab|------------------------------------------------|
GTR  E|------------------------------------------------|    
1+2  B|-0---4---1---0---3---1---0---1------------------| x4             
    Gb|-0---4---1---0---3---1---0---1--0-0-0-0-0-0-0-0-|
     B|-0---4---1---0---3---1---0---1--0-0-0-0-0-0-0-0-|
                                       P M P M P M P M

    Db|-------------- x3 -------------|--------------------|
    Ab|-------------------------------|--------------------|
GTR  E|-------------------------------|--------------------|    
1+2  B|-------------------------------|-----------44444444-|              
    Gb|-------------------------------|--------------------|
     B|-3333-0000-1111-0000-2222-0000-|-3333-0000----------|

    Db|------- x3 ------|-------------------|
    Ab|-----------------|-------------------|
GTR  E|-----------------|-------11-11-11-11-|    
1+2  B|-3--0--1--0--2\1-|-3--0--11-11-11-11-|              
    Gb|-3--0--1--0--2\1-|-3--0--9--9--9--9--|
     B|-3--0--1--0--2\1-|-3--0--------------|

    Db|-------------------------------|
    Ab|-------------------------------|
GTR  E|-------------------------------|    
 1   B|----1----0------1----4444-1111-| x8            
    Gb|-00-1-00-0---00-1-00-----------|
     B|-00-1-00-0---00-1-00-----------|
        PM   PM     PM   PM

    Db|-------------------------------|
    Ab|-------------------------------|
GTR  E|---------------------6666-3333-|    
 2   B|----1----0------1--------------| x8            
    Gb|-00-1-00-0---00-1-00-----------|
     B|-00-1-00-0---00-1-00-----------|
        PM   PM     PM   PM

    Db|---------------------------------------------|
    Ab|------------------4*-----------------0-------|
GTR  E|------------------0------------------3-3-3---| 1,3   
1+2  B|-0--1--0-1p0-0-0-----0--1--0-1p0-0-0---2-2---|              
    Gb|-0--1--0-1p0-0-0-----0--1--0-1p0-0-0---------|
     B|-0--1--0-1p0-0-0-----0--1--0-1p0-0-0---------|
        PM   PM     P M     PM   PM     P M

    Db|---------------------------------------------|
    Ab|------------------4*-------------------------|
GTR  E|------------------0--------------------2-3-3-| 2,4   
1+2  B|-0--1--0-1p0-0-0-----0--1--0-1p0-0-0---1-2-2-|              
    Gb|-0--1--0-1p0-0-0-----0--1--0-1p0-0-0---------|
     B|-0--1--0-1p0-0-0-----0--1--0-1p0-0-0---------|
        PM   PM     P M     PM   PM     P M

    Db|-----------------|
    Ab|------------4*---|
GTR  E|------------0----|    
1+2  B|-----------------| x12              
    Gb|-0-1--0-0-0------|
     B|-0-1--0-0-0------|
       PM    P M PM

    Db|-------------------------------|
    Ab|-------------------------------|
GTR  E|---------------------------2h3-|    
1+2  B|-------------------------------| x8             
    Gb|-0-1--0-0-0-0---0-1--0-0-0-----|
     B|-0-1--0-0-0-0---0-1--0-0-0-----|
       PM    P M PM   PM    P M PM

---------------------------------------------------------------  
 
    Db|-------------------------------------------------|
    Ab|-------------------------------------------------|
GTR  E|-------------------------------4*----------------|    
1+2  B|--0-1-5-----0-1-3-1---0-3-1-0------0-1-5-----0-1-|              
    Gb|----------3---------3----------------------3-----|
     B|0-------0------------------------0-------0-------|
                                                        
    Db|---------|
    Ab|---------|
GTR  E|---------|    
1+2  B|--0-1-5--|              x4              
    Gb|-331-331-|
     B|-331-331-|
                                                        
---------------------------------------------------------------

    Db|-------------- x3 -------------|--------------------|
    Ab|-------------------------------|--------------------|
GTR  E|-------------------------------|--------------------|    
1+2  B|-------------------------------|-----------44444444-|              
    Gb|-------------------------------|--------------------|
     B|-3333-0000-1111-0000-2222-0000-|-3333-0000----------|

    Db|------- x3 ------|-------------------|
    Ab|-----------------|-------------------|
GTR  E|-----------------|-------11-11-11-11-|    
1+2  B|-3--0--1--0--2\1-|-3--0--11-11-11-11-|              
    Gb|-3--0--1--0--2\1-|-3--0--9--9--9--9--|
     B|-3--0--1--0--2\1-|-3--0--------------|

    Db|-------------------------------|
    Ab|-------------------------------|
GTR  E|-------------------------------|    
 1   B|----1----0------1----4444-1111-| x8            
    Gb|-00-1-00-0---00-1-00-----------|
     B|-00-1-00-0---00-1-00-----------|
        PM   PM     PM   PM

    Db|-------------------------------|
    Ab|-------------------------------|
GTR  E|---------------------6666-3333-|    
 2   B|----1----0------1--------------| x8            
    Gb|-00-1-00-0---00-1-00-----------|
     B|-00-1-00-0---00-1-00-----------|
        PM   PM     PM   PM

    Db|-----|
    Ab|-----|
GTR  E|-----|    
 1   B|-----|              
    Gb|-0-0-|
     B|-0-0-|
        P M

END





Comments


Popular Eighteen Visions tabs & chords
Love In Autumn Bass Tabs
Waiting For The Heavens Bass Tabs
Crushed Drum Tabs
Brokem Hearted Tabs
Coma Tabs
Lost In A Dream Tabs
Tower Of Snakes 1 Tabs
Vanity (Intro) Tabs
Victim 3 Tabs
Waiting For The Heavens 1 Tabs


Song lyrics



↑ Back to top | Tablatures and chords are parodies/interpretations of the original songs. You may use it for private study, scholarship, research or language learning purposes only
© 2014 AZChords.com Contact us | Privacy policy | DMCA | Add/correct tabs | Request tabs | Top 50 tabs