>
 >
I Let Go

I Let Go Guitar Tabs

Eighteen Visions - I Let Go chords, tabs, tablatures, lyrics

Guitar lessons | Add/correct | Request | Top 50 tabs Artists:  A B C D E F G H I J K L M N O P Q R S T U V W X Y Z 0-9

I Let Go Guitar Tabs – Eighteen Visions

CD, Sheet music, Poster

Do you like I Let Go? Share with your friends now
Bass TabsTabs
Eighteen Visions - I let go

Dropped B Tuning [B - F# - B - E - G# - C#]
                 [low ----------------high]

If you're not sure how to achieve dropped B tuning:

Start with standard (EADGBe) tuning     
- Find the 10th fret on the low E string
- Play the 10th fret & string above it (open). Tune the low E string untill
  the 10th fret is the same note as the open string above it. The E
  is now a B, when the string is played open
- Now move to the 7th fret on the now low B string, and play it. play the
  string above it
  open and tune until it is the same note as the 7th fret on the B string
- From here, tune the next four strings as you would with standard tuning 
  (i.e. 5th fret, open string above etc)

|:| . - plam mute

__________________________________________________________________

Intro
__________________________________________________________________

   Guitar one
|:|------------------------|
|:|------------------------|
|:|------------------------|
|:|-10--101010-/---------/-|
|:|-10--101010-/Pickslide/-|
|:|-10--101010-/---------/-|

__________________________________________________________________

Verse 1
__________________________________________________________________

   Guitar one
|:|--------------|
|:|--------------|
|:|--------------|
|:|-7-3-5-0-0000-|
|:|-7-3-5-0-0000-|
|:|-7-3-5-0-0000-| x 4
            ....
   Guitar one
|:|--------------------------------------------------|
|:|--------------------------------------------------|
|:|--------------------------------------------------|
|:|-10-8-7-2-222222222222-10-8-7-2---222---222---222-|
|:|-10-8-7-2-222222222222-10-8-7-2---222---222---222-|
|:|-10-8-7-2-222222222222-10-8-7-2---222---222---222-| x 2
             ............            ..    ..    ..


At this point, Guitar two's part plays during the palm muted chords:

   Guitar one
|:|----------|-----------------------------------------|
|:|----------|-----------------------------------------|
|:|----------|---------------------------4-----4-----4-|
|:|-10-8-7-2-|-222222222222-10-8-7-2-222-4-222-4-222-4-|
|:|-10-8-7-2-|-222222222222-10-8-7-2-222-2-222-2-222-2-|
|:|-10-8-7-2-|-222222222222-10-8-7-2-222---222---222---| 
| |          | ............          ...   ...   ...
| |          |
| |          | Guitar two: *all pinch harmonics [I think]* 
|:|----------|--------------------------------/--------|
|:|----------|*--------9---------9-11-9------*/--------|
|:|----------|*-9-11-9---11-9-11--------11-9-*/--------|
|:|----------|--------------------------------/--------|
|:|----------|--------------------------------/--------|
|:|----------|--------------------------------/--------|

__________________________________________________________________

Pre Chorus
__________________________________________________________________

   Guitar one
|:|-----------------------------------------------------|
|:|-----------------------------------------------------|
|:|-----------------------------------------------------|
|:|-10-8-7-2-222222222222-10-8-7-2222-0000-/----------/-|
|:|-10-8-7-2-222222222222-10-8-7-2222-0000-/-Pickslide/-|
|:|-10-8-7-2-222222222222-10-8-7-2222-0000-/----------/-| 
             ............       

__________________________________________________________________

Chorus
__________________________________________________________________

   Guitar one
|:|------------------|------------------|----------|-------------|
|:|------------------|------------------|----------|-------------|
|:|------------------|------------------|----------|-------------|
|:|-1010101010101010-|-1010101010101010-|-77777777-|-66666666----|
|:|-1010101010101010-|-1010101010101010-|-77777777-|-66666666----|
|:|-1010101010101010-|-9-9-9-9-9-9-9-9--|-77777777-|-66666666----|
| |Guitar two        |                  |          |             |
|:|------------------|------------------|----------|-------------|
|:|------------------|------------------|----------|-------------|
|:|-12-14-12-10-9-10-|-12-14-12-19-9-10-|-12-10-7--|-12-10-7-/10-|
|:|------------------|------------------|----------|-------------|
|:|-10-12-10-8--7-8--|-10-12-10-8--7-8--|-10-8--5--|-10-8--5-/8--|
|:|------------------|------------------|----------|-------------|

__________________________________________________________________

Verse 2
__________________________________________________________________

   Guitar one
|:|--------------------------------------------------|
|:|--------------------------------------------------|
|:|--------------------------------------------------|
|:|-10-8-7-2-222222222222-10-8-7-2---222---222---222-|
|:|-10-8-7-2-222222222222-10-8-7-2---222---222---222-|
|:|-10-8-7-2-222222222222-10-8-7-2---222---222---222-| x 2
             ............            ..    ..    ..

   Guitar one
|:|----------|-----------------------------------------|
|:|----------|-----------------------------------------|
|:|----------|---------------------------4-----4-----4-|
|:|-10-8-7-2-|-222222222222-10-8-7-2-222-4-222-4-222-4-|
|:|-10-8-7-2-|-222222222222-10-8-7-2-222-2-222-2-222-2-|
|:|-10-8-7-2-|-222222222222-10-8-7-2-222---222---222---| 
| |          | ............          ...   ...   ...   |
| |          |                                         |
| |          | Guitar Two: *all pinch harmonics*       |
|:|----------|--------------------------------/--------|
|:|----------|*--------9---------9-11-9------*/--------|
|:|----------|*-9-11-9---11-9-11--------11-9-*/--------|
|:|----------|--------------------------------/--------|
|:|----------|--------------------------------/--------|
|:|----------|--------------------------------/--------|  x 2
    
__________________________________________________________________

Pre Chorus
__________________________________________________________________

   Guitar one
|:|-----------------------------------------------------|
|:|-----------------------------------------------------|
|:|-----------------------------------------------------|
|:|-10-8-7-2-222222222222-10-8-7-2222-0000-/----------/-|
|:|-10-8-7-2-222222222222-10-8-7-2222-0000-/-Pickslide/-|
|:|-10-8-7-2-222222222222-10-8-7-2222-0000-/----------/-| 
             ............       
__________________________________________________________________

Chorus
__________________________________________________________________

   Guitar one
|:|------------------|------------------|----------|-------------|
|:|------------------|------------------|----------|-------------|
|:|------------------|------------------|----------|-------------|
|:|-1010101010101010-|-1010101010101010-|-77777777-|-66666666----|
|:|-1010101010101010-|-1010101010101010-|-77777777-|-66666666----|
|:|-1010101010101010-|-9-9-9-9-9-9-9-9--|-77777777-|-66666666----|
| |Guitar two        |                  |          |             |
|:|------------------|------------------|----------|-------------|
|:|------------------|------------------|----------|-------------|
|:|-12-14-12-10-9-10-|-12-14-12-19-9-10-|-12-10-7--|-12-10-7-/10-|
|:|------------------|------------------|----------|-------------|
|:|-10-12-10-8--7-8--|-10-12-10-8--7-8--|-10-8--5--|-10-8--5-/8--|
|:|------------------|------------------|----------|-------------| x 2


__________________________________________________________________

Breakdown (?)
__________________________________________________________________


At "I gotta leave it alone this time...":

   Guitar one
|:|--------------------------------------------------|
|:|--------------------------------------------------|
|:|--------------------------------------------------|
|:|-777-333-555-000000--777-333-555-000000-2-----2-2-|
|:|-777-333-555-000000--777-333-555-000000-0-----0-0-|
|:|-777-333-555-000000--777-333-555-000000---0-0-----|  x 2
    ... ... ... ......  ... ... ...          . .


Then at the shouty bit "I gotta leave it alone...":

   Guitar one
|:|-----------------------------------------------------|
|:|-----------------------------------------------------|
|:|-----------------------------------------------------|
|:|-7-3-5-0-0000-7-3-5-0-0000-7-3-5-0-0000-7-3-5-0-0000-|
|:|-7-3-5-0-0000-7-3-5-0-0000-7-3-5-0-0000-7-3-5-0-0000-|
|:|-7-3-5-0-0000-7-3-5-0-0000-7-3-5-0-0000-7-3-5-0-0000-|
            ....         ....         ....         ....

__________________________________________________________________

Outro
__________________________________________________________________

   Guitar one
|:|------------------|------------------|----------|-------------|
|:|------------------|------------------|----------|-------------|
|:|------------------|------------------|----------|-------------|
|:|-1010101010101010-|-1010101010101010-|-77777777-|-66666666----|
|:|-1010101010101010-|-1010101010101010-|-77777777-|-66666666----|
|:|-1010101010101010-|-9-9-9-9-9-9-9-9--|-77777777-|-66666666----|
| |Guitar two        |                  |          |             |
|:|------------------|------------------|----------|-------------|
|:|------------------|------------------|----------|-------------|
|:|-12-14-12-10-9-10-|-12-14-12-19-9-10-|-12-10-7--|-12-10-7-/10-|
|:|------------------|------------------|----------|-------------|
|:|-10-12-10-8--7-8--|-10-12-10-8--7-8--|-10-8--5--|-10-8--5-/8--|
|:|------------------|------------------|----------|-------------|

played untill fade out





Comments


Popular Eighteen Visions tabs & chords
I Let Go Bass Tabs
Our Darkest Days Bass Tabs
Waiting For The Heavens 1 Bass Tabs
Brokem Hearted Tabs
Brokenhearted Intro Tabs
Raping, Laughing, Tasting, Temptation Tabs
Sonic Death Monkey Tabs
Vanity (Intro) Tabs
Waiting For The Heavens Tabs
Waiting For The Heavens 2 Tabs


Song lyrics



↑ Back to top | Tablatures and chords are parodies/interpretations of the original songs. You may use it for private study, scholarship, research or language learning purposes only
© 2014 AZChords.com Contact us | Privacy policy | DMCA | Add/correct tabs | Request tabs | Top 50 tabs