>
 >
Dead Rose

Dead Rose Guitar Tabs

Eighteen Visions - Dead Rose chords, tabs, tablatures, lyrics

Guitar lessons | Add/correct | Request | Top 50 tabs Artists:  A B C D E F G H I J K L M N O P Q R S T U V W X Y Z 0-9

Dead Rose Guitar Tabs – Eighteen Visions

CD, Sheet music, Poster

Do you like Dead Rose? Share with your friends now
Tabs
EIGHTEEN VISIONS - DEAD ROSE


   c#|--------------|---------------|
   G#|--------------|---------------|
GTR E|----------7\6-|----------6----|    
1+2 B|--------------|---------------|              
   F#|-000-1-0--6\5-|-000-1-0--5----|
    B|-000-1-0------|-000-1-0-------|
       P M P M        P M P M

   c#|-------------------------------------------------|
   G#|-------------------------------------------------|
GTR E|----7----7----7\7----7\7----7\7----7\7----6------|    
1+2 B|-------------------------------------------------|             
   F#|-00-5-00-5-00-6\5-00-6\5-00-6\5-00-6\5-00-5------|
    B|-00---00---00-----00-----00-----00-----00---6\-1-|
       PM   PM   PM     PM     PM     PM     PM

   c#|---------------------------------------------|
   G#|---------------------------------------------|
GTR E|----7----7----7----7----7\7----7\7----6------|    
1+2 B|---------------------------------------------|        
   F#|-00-5-00-5-00-5-00-5-00-6\5-00-6\5-00-5------|
    B|-00---00---00---00---00-----00-----00---6\-1-|
       PM   PM   PM   PM   PM     PM     PM

   c#|-------------------------------------------------|
   G#|-------------------------------------------------|
GTR E|----7----7----7\7----7------7\7----7\7----6------|    
1+2 B|-------------------------------------------------|             
   F#|-00-5-00-5-00-6\5-00-5---00-6\5-00-6\5-00-5------|
    B|-00---00---00-----00-----00-----00-----00---6\-1-|
       PM   PM   PM     PM     PM     PM     PM

   c#|-----------------------------------------------------|
   G#|-----------------------------------------------------|
GTR E|----7\7----7\7----7\7----5\7----7\7----6----7\7------|    
1+2 B|-----------------------------------------------------|             
   F#|-00-6\5-00-6\5-00-6\5-00-6\5-00-6\5-00-5-00-6\5------|
    B|-00-----00-----00-----00-----00-----00---00-----6\-1-|
       PM     PM     PM     PM     PM     PM   PM

   c#|--------------------------------|
   G#|--------------------------------|
GTR E|--------------------------------|    
1+2 B|------------1-------------------|              
   F#|-0-0-0------1-------------------|
    B|-0-0-0-/6/--1-------------------|
       P MPM

   c#|--------------------------------|
   G#|--------------------------------|
GTR E|--------------------------------|    
1+2 B|-----------------------------1--| x4            
   F#|-0-0-0-0-0-0-0-0--0-0-0------1--|
    B|-0-0-0-0-0-0-0-0--0-0-0-/6\--1--|
                        P MPM

   c#|--------------------------------------------------------|
   G#|--------------------------------------------------------|
GTR E|--------------------------------------------------------|    
1+2 B|-0------------------------------------------------------|              
   F#|-0------------------------------------------------------|
    B|-0------------------------------------------------------|

   c#|-----------------------191919--------191919--------1919-|
   G#|----------191919191919--------191919--------191919------|
GTR E|--------------------------------------------------------|    
 2  B|-0------------------------------------------------------|              
   F#|-0-(ring)-----------------------------------------------|
    B|-0------------------------------------------------------|            
   
   c#|------------|
   G#|------------|
GTR E|------------|    
 1  B|------------|              
   F#|------------|
    B|-0-1-1-4----|

   c#|------------|
   G#|------------|
GTR E|------------|    
 2  B|-pick slide-|              
   F#|------------|
    B|------------|

   c#|--------------------------------|
   G#|--------------------------------|
GTR E|--------------------------------|    
1+2 B|------------1-------------------|              
   F#|-0-0-0------1-------------------|
    B|-0-0-0-/6/--1-------------------|
       P MPM

   c#|--------------------------------|
   G#|--------------------------------|
GTR E|--------------------------------|    
1+2 B|-----------------------------1--| x2            
   F#|-0-0-0-0-0-0-0-0--0-0-0------1--|
    B|-0-0-0-0-0-0-0-0--0-0-0-/6\--1--|
                        P MPM

   c#|---------------------------------|
   G#|---------------------------------|
GTR E|---------------------------------|    
1+2 B|---------------------------------|              
   F#|-0-0-0-0-0-0-0-0-0-0-0-0-0-0-0-0-|
    B|-0-0-0-0-0-0-0-0-0-0-0-0-0-0-0-0-|

   c#|---------------------------------------------|
   G#|---------------------------------------------|
GTR E|-10101010-9999-------------------------------|    
 2  B|---------------11111111-10101010-888-8-8-8-8-|              
   F#|-------------------------------------7-7-7-7-|
    B|---------------------------------------------|

   c#|----- x3 ------|---------------------------------|
   G#|---------------|---------------------------------|
GTR E|-6-------------|-10101010-9999-------------------|    
1+2 B|-5-------------|---------------11111111-10101010-| x4             
   F#|---1-4-3-0-3-1-|---------------------------------|
    B|---1-4-3-0-3-1-|---------------------------------|
         P M P M P M

   c#|---- x3 -1,3-|------2--------|--------4---------------|
   G#|-------------|---------------|------------------------|
GTR E|6------------|3PH------------|101010-999--------------|    
1+2 B|5------------|---------------|-----------111111-101010| x2            
   F#|--1-4-3-0-3-1|----1-4-3-0-3-1|------------------------|
    B|--1-4-3-0-3-1|----1-4-3-0-3-1|------------------------|
        P M P M P M

   c#|-------------------|
   G#|-------------------|
GTR E|-------------------|    
1+2 B|-88888888----------|              
   F#|----------99999999-|
    B|-------------------|

   c#|---- x3 -1,3-|------2--------|--------4---------------|
   G#|-------------|---------------|------------------------|
GTR E|6------------|3PH------------|101010-999--------------|    
1+2 B|5------------|---------------|-----------111111-101010| x2            
   F#|--1-4-3-0-3-1|----1-4-3-0-3-1|------------------------|
    B|--1-4-3-0-3-1|----1-4-3-0-3-1|------------------------|
        P M P M P M

   c#|----------------------------------|
   G#|----------------------------------|
GTR E|----------------------------------|    
1+2 B|--------------------------6-------| x8             
   F#|-0-0-1-0-4-3-1-3--4-4-5-4-4-5-4-5-|
    B|-0-0-1-0-4-3-1-3--4-4-5-4---5-4-5-|

   c#|-----------------------------------------------------|
   G#|-----------------------------------------------------|
GTR E|-----------------16161616----------16161616----------|    
 1 B|--------------------------17171717----------17171717--|              
   F#|-3-1-1-1-3-1-1-1-------------------------------------|
    B|-3-1-1-1-3-1-1-1-------------------------------------|

   c#|-----------------------------------------------------|
   G#|-----------------------------------------------------|
GTR E|-----------------------------------------------------|    
 2  B|-----------------17171717----------17171717----------|              
   F#|-3-1-1-1-3-1-1-1----------19191919----------19191919-|
    B|-3-1-1-1-3-1-1-1-------------------------------------|

   c#|-----------------------------------------------------|
   G#|-----------------------------------------------------|
GTR E|-----------------16161616-16161616-16161616----------|    
 1  B|--------------------------------------------17171717-|              
   F#|-3-1-1-1-3-1-1-1-------------------------------------|
    B|-3-1-1-1-3-1-1-1-------------------------------------|

   c#|-----------------------------------------------------|
   G#|-----------------------------------------------------|
GTR E|-----------------------------------------------------|    
 2  B|-----------------17171717-17171717-17171717----------|              
   F#|-3-1-1-1-3-1-1-1----------------------------19191919-|
    B|-3-1-1-1-3-1-1-1-------------------------------------|

   c#|-------------------------|
   G#|-------------------------|
GTR E|-------------------------|    
1+2 B|-------------------------| x8              
   F#|-3-1-0-1-3-1-0-1-0-0-0-0-|
    B|-3-1-0-1-3-1-0-1-0-0-0-0-|
       P M P M P M P M

   c#|------ x3 ----------|---------------------|
   G#|--------------------|---------------------|
GTR E|--------------------|---------------------|    
1+2 B|-0------------------|-0--1----------------| x4              
   F#|-0------------------|-0--1----------------|
    B|-0----/131313131313-|-0--1--/151515151515-|

   c#|---------------------|
   G#|---------------------|
GTR E|-6---7---6---3---2---|    
1+2 B|-0---0---0---0---0---| x4              
   F#|---------------------|
    B|---------------------|

   c#|-------------------------------------------------|
   G#|-------------------------------------------------|
GTR E|-6-6-6-6-6-6-7-7-7-6-6-6-3-3-3-3-3-3-2-2-2-2-2-2-|    
1+2 B|-------------------------------------------------| x3              
   F#|-5-5-5-5-5-5-5-5-5-5-5-5-1-1-1-1-1-1-0-0-0-0-0-0-|
    B|-------------------------------------------------|

   c#|-------------------------------------------------|
   G#|-------------------------------------------------|
GTR E|-6-6-6-6-6-6-7-7-7-6-6-6-3-3-3-3-3-3-2-2-2-2-2-2-|    
 1  B|-------------------------------------------------|              
   F#|-5-5-5-5-5-5-5-5-5-5-5-5-1-1-1-1-1-1-0-0-0-0-0-0-|
    B|-------------------------------------------------|

   c#|-------------------------------------------------|
   G#|-------------------------------------------------|
GTR E|-------------44444-77777-33333333333-22222222222-|    
 2  B|-55555555555-------------------------------------|              
   F#|-------------------------------------------------|
    B|-------------------------------------------------|

   c#|--------------------------------|
   G#|--------------------------------|
GTR E|--------------------------------|    
1+2 B|------------1-------------------|              
   F#|-0-0-0------1-------------------|
    B|-0-0-0-/6/--1-------------------|
       P MPM

   c#|--------------------------------|
   G#|--------------------------------|
GTR E|--------------------------------|    
1+2 B|-----------------------------1--| x2            
   F#|-0-0-0-0-0-0-0-0--0-0-0------1--|
    B|-0-0-0-0-0-0-0-0--0-0-0-/6\--1--|
                        P MPM

   c#|-----------------------------------|
   G#|-----------------------------------|
GTR E|-----------------------------------|    
 1  B|-----------------------------------|              
   F#|-0-0-0-0-0-0-0-0-0-0-0-0-0-0-0-0-0-|
    B|-0-0-0-0-0-0-0-0-0-0-0-0-0-0-0-0-0-|
   
END





Comments


Popular Eighteen Visions tabs & chords
Crushed Bass Tabs
I Let Go Bass Tabs
Our Darkest Days Bass Tabs
Said And Done Chords
Brokem Hearted Tabs
Lost In A Dream Tabs
Our Darkest Days Tabs
Sonic Death Monkey Tabs
Tonightless 1 Tabs
Waiting For The Heavens 1 Tabs


Song lyrics



↑ Back to top | Tablatures and chords are parodies/interpretations of the original songs. You may use it for private study, scholarship, research or language learning purposes only
© 2014 AZChords.com Contact us | Privacy policy | DMCA | Add/correct tabs | Request tabs | Top 50 tabs