» » »

Im Blue Da Ba Dee Bass tabs (ver.1)

Artists:  A B C D E F G H I J K L M N O P Q R S T U V W X Y Z # 

Im Blue Da Ba Dee Bass tabs (ver.1)

Eiffel 65
Rating:
0/5 (0 votes)

Hard to play? Try these video lessons and learn fast.
                Band I play in: "Deafinition"
Drop "D" tunning
DADG

Intro
G|--------|
D|--------|
A|--REST--|
D|--------|

1st Interlude 
G|--------------------|
D|--------------------|
A|--------------------|
D|--5--5--5--5--5--5--|

Chorus
G|------------------------------5---5---|
D|*----5---5---3---3---1---1-----------0|
A|*---------------------------3---3----0| X3
D|---5---5---3---3---1---1--------------|

G|-----------------------------------|
D|----5---5---7---7---1---1---1---1--|
A|-----------------------------------|
D|--5---5---7---7---1---1---1---1----|

2nd Interlude
G|--------------------|
D|--------------------|
A|--------------------|
D|--0--0--0--0--0--0--|

Verse
G|-----------------------------|
D|*------------------------8--0|
A|*---------------------------0|
D|---0--0--3--3--6--6--8-7-----|

G|--------------|
D|--------------|
A|--------------|
D|--0--0--3--3--|

There ya have it! Fun to play but takes some practice!
Thanks, :)
            
Hard to play? Try these video lessons and learn fast. | Correct




comments powered by Disqus
↑ Back to top | Tablatures and chords are parodies/interpretations of the original songs. You may use it for private study, scholarship, research or language learning purposes only