» » »

Egypt Central, You Make Me Sick Tabs (ver.1)

Artists:  A B C D E F G H I J K L M N O P Q R S T U V W X Y Z # 

You Make Me Sick Tabs (ver.1)

Egypt Central Tabs
 Rating:
3.6/5 (7 votes)
You Make Me Sick lessons Tabs too difficult? Try these video lessons and learn fast
1
                -------------------------------------------------------------------------------
-------------------------------------------------------------------------------

Tuning: Drop B


INTRO: (played with a certain effect, not sure which one)

Rhythm Guitar (clean)

C# |----------------------------------------|
G# |----------------------------------------|
E  |----------------------------------------|
B  |7-7-7-7-7--10-10-10-10/9-9-9-9/7-7-7----|
F# |7-7-7-7-7-------------------------------|
B  |7-7-7-7-7-------------------------------|

C# |----------------------------------------|
G# |----------------------------------------|
E  |----------------------------------------|
B  |3-3-3-3-3--10-10-10-10/9-9-9-9\12-12-12-|  
F# |3-3-3-3-3-------------------------------|
B  |3-3-3-3-3-------------------------------|


MAIN AND CHORUS RIFF:

Rhythm Guitar (dirty)

C# |--------------------------------------------------------------|
G# |--------------------------------------------------------------|
E  |--------------------------------------------------------------|
B  |7-5-7-5-7-5---7--5-7-5-7-5---3--3-3--3-3-3--5--5-5--5-5-5-5---|   x 2
F# |7-5-7-5-7-5---7--5-7-5-7-5---3--3-3--3-3-3--5--5-5--5-5-5-5---|
B  |7-5-7-5-7-5---7--5-7-5-7-5---3--3-3--3-3-3--5--5-5--5-5-5-5---|

Lead Guiar (dirty)


C# |8-8-8-8-8-8---8--8-8-8-8-8---12----12--12\15/12---7----7--7\10-10-10------| 
G# |--------------------------------------------------------------------------|
E  |5-5-5-5-5-5---5--5-5-5-5-5---9-----9---9-\12/9----4----4--4\7--7- 7-------|
B  |--------------------------------------------------------------------------|
F# |--------------------------------------------------------------------------|
B  |--------------------------------------------------------------------------|


C# |8-8-8-8-8-8---8--8-8-8-8-8---12----12--12\15------7---7-7--7\10-10-10-----| 
G# |--------------------------------------------------------------------------|
E  |5-5-5-5-5-5---5--5-5-5-5-5---9-----9---9-\12------4---4-4--4\7--7- 7------|
B  |--------------------------------------------------------------------------|
F# |--------------------------------------------------------------------------|
B  |--------------------------------------------------------------------------|

VERSES:

Rhythm Guitar (clean)

C# |----------------------------------------|
G# |----------------------------------------|
E  |----------------------------------------|
B  |7-7-7-7-7--10-10-10-10/9-9-9-9/7-7-7----|  x2
F# |7-7-7-7-7-------------------------------|
B  |7-7-7-7-7-------------------------------|


C# |----------------------------------------|
G# |----------------------------------------|
E  |----------------------------------------|
B  |3-3-3-3-3--10-10-10-10/9-9-9-9/7-7-7----|  
F# |3-3-3-3-3-------------------------------|
B  |3-3-3-3-3-------------------------------|

C# |----------------------------------------|
G# |----------------------------------------|
E  |----------------------------------------|
B  |3-3-3-3-3--10-10-10-10/9-9-9-9\12-12-12-|  
F# |3-3-3-3-3-------------------------------|
B  |3-3-3-3-3-------------------------------|


Lead Guitar (clean)

C# |----------------------------------------|
G# |----------------------------------------|
E  |----------17--17-16---------------------|
B  |-----15-17------------------------------| x4
F# |13/15-----------------------------------|
B  |----------------------------------------|



C# |----------------------------------------|
G# |----------------------------------------|
E  |-----14-----14------14----14----16------|
B  |--------15-----15-----15----15----15----| x3
F# |13/15-------------15----15----15----15--|
B  |----------------------------------------|

transition to chorus	

				   |dirty
C# |----------------------------------------|
G# |----------------------------------------|
E  |-----14-----14--------------------------|
B  |--------15-----15--------------10-9\----| 
F# |13/15-------------15--------------------|
B  |----------------------------------------|


Play Chorus (scroll up to see chorus)


BRIDGE:

Rhythm Guitar (dirty)

C# |---------------------------------------------------------------|
G# |---------------------------------------------------------------|
E  |---------------------------------------------------------------|
B  |7---10---3--3-3--3--x-3-x-3-----10-10---10--10----5-5---5--5---|   x 4
F# |7---10---3--3-3--3--x-3-x-3-----10-10---10--10----5-5---5--5---|
B  |7---10---3--3-3--3--x-3-x-3-----10-10---10--10----5-5---5--5---|

Lead Guitar (dirty)

(harmonics)

C# |---------------------------------------------------------------|
G# |----------------------------------5---5---5-------5------------|
E  |---------5----------------------5-------------------5---5---5--|   x 2
B  |----5----------------------------------------------------------|   
F# |5--------------------------------------------------------------|
B  |---------------------------------------------------------------|

SOLO:

C# |---------------------------------------------------------------|
G# |---------------------------------------------------------------|
E  |-------------------5----5---5----5/---------17--------14-------|   x 2
B  |-10--7---------------------------------------------------------|   
F# |----------------3----3-------3-----------------15/--------12/--|
B  |-------10/-----------------------------------------------------|

POST-SOLO BREAK:

Rhythm Guitar (dirty)

(fading out)

C# |----------------------------------------|
G# |----------------------------------------|
E  |----------------------------------------|
B  |7---------------------------------------|  
F# |7---------------------------------------|
B  |7---------------------------------------|

Lead Guitar (clean)


C# |----------------------------------------|
G# |----------------------------------------|
E  |----------------------------------------|
B  |7-7-7-7-7--10-10-10-10/9-9-9-9/7-7-7----| x 2
F# |7-7-7-7-7-------------------------------|
B  |7-7-7-7-7-------------------------------|

C# |----------------------------------------|
G# |----------------------------------------|
E  |----------------------------------------|
B  |3------10-10-10-10/9-9-9-9/7-7-7--------|  
F# |3---------------------------------------|
B  |3---------------------------------------|


transition to chorus
				    |dirty

C# |----------------------------------------|
G# |----------------------------------------|
E  |----------------------------------------|
B  |3--------------------------------10-9/--|  
F# |3---------------------------------------|
B  |3---------------------------------------|


Play Chorus (scroll up to see chorus)

OUTRO (both guitars)

C# |--------------------------------------------------------------|
G# |--------------------------------------------------------------|
E  |--------------------------------------------------------------|
B  |7-5-7-5-7-5---7--5-7-5-7-5---7--5-7-5-7-5---7--5-7-5--3-------|   x 2
F# |7-5-7-5-7-5---7--5-7-5-7-5---7--5-7-5-7-5---7--5-7-5--3-------|
B  |7-5-7-5-7-5---7--5-7-5-7-5---7--5-7-5-7-5---7--5-7-5--3-------|

Thank you,

Please rate at comment,

Bilawal Soomro




************************************

| /   slide up
| \   slide down
| h   hammer-on
| p   pull-off
| ~   vibrato
| +   harmonic
| x   Mute note
| b   Bend
| pb  Pre-bend
| br  Bend release
| pbr Pre-bend release
| brb Bend release bend

************************************
            
Submit corrections

comments powered by Disqus
↑ Back to top | Egypt Central Tabs for You Make Me Sick. Lyrics for acoustic guitar and electric guitar. 1 Tablatures and chords are parodies/interpretations of the original songs. You may use it for private study, scholarship, research or language learning purposes only