» » »

Egypt Central, Over And Under Tabs (ver.1)

Artists:  A B C D E F G H I J K L M N O P Q R S T U V W X Y Z # 

Over And Under Tabs (ver.1)

Egypt Central Tabs
 Rating:
4.3/5 (6 votes)
Over And Under lessons Tabs too difficult? Try these video lessons and learn fast
                ----------------------------------------------------------------------------
----------------------------------------------------------------------------

Tuning: E Standard

Intro/Verse:
Guitar I
e|-----------------------------------------------------------------------|
B|-------7/9-9-9-9/4-4---------------------------------------------------|
G|-6666--8/9 9 9-9/4-4------6/8-8-8-8-6----------------------------------|
D|-6666----------------7777-7/9-9-9-9-7----------------------------------|
A|-4444----------------7777----------------------------------------------|
E|---------------------5555----------------------------------------------|

then

e|------------------------|
B|------------------------|
G|-66666666------99-------|
D|-66666666-7777-99-99----|
A|-44444444-7777-77-99----|
E|----------5555----77----|

Guitar II (comes in at 2nd part of intro with wah)
e|-7/9-9-7/9-9-7/9--7/9-9-7/9-9-7/9--------------------------------------|
B|-7/9-9-7/9-9-7/9--7/9-9-7/9-9-7/9--------------------------------------|
G|-----------------------------------------------------------------------|
D|-----------------------------------------------------------------------|
A|-----------------------------------------------------------------------|
E|-----------------------------------------------------------------------|

Pre-Chorus (wah)
e|-4-xxx-4-xxx-4-xxx-4-xxx-----------------------------------------------|
B|-5-xxx-5-xxx-5-xxx-5-xxx-----------------------------------------------|
G|-6-xxx-6-xxx-6-xxx-6-xxx-----------------------------------------------|
D|-6-xxx-6-xxx-6-xxx-6-xxx-----------------------------------------------|
A|-----------------------------------------------------------------------|
E|-----------------------------------------------------------------------|

Chorus
Guitar I
e|-----------------------------------------------------------------|
B|-----------------------------------------------------------------|
G|-4/66666666---------44-------------------------------------------|
D|-4/66666666-7777-22-44-------------------------------------------|
A|-2/44444444-7777-22-22-------------------------------------------|
E|------------5555-00----------------------------------------------|

Guitar II (Wah)
e|-7/9-9-9-7/9-9-9-7/9-9-7/9-9-9-7/9-9-9-7/9-9-|
B|-7/9-9-9-7/9-9-9-7/9-9-7/9-9-9-7/9-9-9-7/9-9-|
G|---------------------------------------------|
D|---------------------------------------------|
A|---------------------------------------------|
E|---------------------------------------------|

Solo
Guitar I - Same chords as chorus but with a different rhythm
Guitar II(Wah)
e|-----------------------------------------------------------------|
B|-----------------------------------------------------------------|
G|-----------------------------------------------------------------|
D|-9-7-6-7-6----------------------9/7-7/11-11-11 9-----------------|
A|---------------6-6-7/6-9/7-11/9----------------------------------|
E|-----------9-9---------------------------------------------------|

e|-------------------------------------|
B|-------------------------------------|
G|-------------------------------------|
D|-9tr--6tr----------------------------|
A|-----------9tr-9h11------------------|
E|--------------------9----------------|

e|---------------12(14)-14(16)-----------------------------|
B|-14(16)-16(17)-------------------------------------------|
G|---------------------------------------------------------|
D|---------------------------------------------------------|
A|---------------------------------------------------------|
E|---------------------------------------------------------|

Order:
Intro Part I(Guitar I)x2
Intro Part II (Guitar I&II) x2
Verse x2
Pre-Chorus x4
Chorus x4
Verse x4
Pre-Chorus x4
Chorus x4
Solo
Pre-Chorus x4
Chorus x8

| tr tremolo picking
| /  slide up
| \  slide down
| h  hammer-on
| p  pull-off
| ~  vibrato
| +  harmonic
| x  Mute note

And that's your lot. Solo isn't exact but it's pretty damn close I think.
===============================================================================
            
Submit corrections

comments powered by Disqus
↑ Back to top | Egypt Central Tabs for Over And Under. Lyrics for acoustic guitar and electric guitar. Tablatures and chords are parodies/interpretations of the original songs. You may use it for private study, scholarship, research or language learning purposes only