>
 >
Ghost Town

Ghost Town Guitar Tabs

Egypt Central - Ghost Town chords, tabs, tablatures, lyrics

Guitar lessons | Add/correct | Request | Top 50 tabs Artists:  A B C D E F G H I J K L M N O P Q R S T U V W X Y Z 0-9

Ghost Town Guitar Tabs – Egypt Central

CD, Sheet music, Poster

Do you like Ghost Town? Share with your friends now
Tabs
                     Ghost Town/Egypt Central/White Rabbit
Tuning:C#/G#/C#/F#/A#/D#
PLEASE!!!! Rate and leave feedback!!! It really helps!!!!!

b -- bend
r -- release
. -- palm mute
/ -- slide up/down
~ -- vibrato
h -- hammer-on
p -- pull-off
* -- pinch harmonic

INTRO
Guitar 1
--------------------------------------------------------------------|
--------------------------------------------------------------------|
--------------------------------------------------------------------|
--------------------------------------------------------------------|
---------------------------------------------------------5----------|
-6b(7)-0-0---0---0-5b(6)-0-0---0---0-3b(4)-0-0---0---0-6---6-0-5-3*-|
                                                           . . .
Guitar 2---

Guitar 1
--------------------------------------------------------------------|
--------------------------------------------------------------------|
--------------------------------------------------------------------|
--------------------------------------------------------------------|
---------------------------------------------------------5----------|
-6b(7)-0-0---0---0-5b(6)-0-0---0---0-3b(4)-0-0---0---0-6---6-0-5-3*-|
                                                           . . .

Guitar 2
--------------------------------------------------------------------|
--------------------------------------------------------------------|
--------------------------------------------------------------------|
--------------------------------------------------------------------|
-------------------------------------------------------7h8-------3*-|
-----------------------------------------------------------0-0-0----|
                                                           . . .

Guitar 1
--------------------------------------------------------------------|
--------------------------------------------------------------------|
--------------------------------------------------------------------|
--------------------------------------------------------------------|
---------------------------------------------------------5----------|
-6b(7)-0-0---0---0-5b(6)-0-0---0---0-3b(4)-0-0---0---0-6---6-0-5-3*-|
                                                           . . .

Guitar 2
--------------------------------------------------------------------|
--------------------------------------------------------------------|
--------------------------------------------------------------------|
--------------------------------------------------------------------|
--/8----------------/7----------------/5---------------7h8-------3*-|
-------0-0---0---0-------0-0---0---0-------0-0---0---0-----0-0-0----|
                                                           . . .

Guitar 1
--------------------------------------------------------------------|
--------------------------------------------------------------------|
--------------------------------------------------------------------|
--------------------------------------------------------------------|
---------------------------------------------------------5----------|
-6b(7)-0-0---0---0-5b(6)-0-0---0---0-3b(4)-0-0---0---0-6---6-0-5-3*-|
                                                           . . .

Guitar 2
--------------------------------------------------------------------|
--------------------------------------------------------------------|
--------------------------------------------------------------------|
--------------------------------------------------------------------|
--/8----------------/7----------------/5---------------7h8-------3*-|
-------0-0---0---0-------0-0---0---0-------0-0---0---0-----0-0-0----|
                                                           . . .

PIANO RIFF
-----------------------------------------------------------------|
-----------------------------------------------------------------|
-----------------------------------------------------------------|
-0---------------------------------------------------------------|
-0---------------------------------------------------------------|
-0---------------------------------------------------------------|

-----------------------------------------------------------------|
-----------------------------------------------------------------|
-----------------------------------------------------------------|
-----------------------------------------------------------------|
-----------------------------------------------------------------|
-----------------------------------------------------------------|

HEAVY RIFF
-----------------------------------------------------------------|
-----------------------------------------------------------------|
-----------------------------------------------------------------|
-0-0-0-0-0-0-0-0-8-8-8-8-8-8-8-8-3-3-3-3-3-3-3-3-6-6-6-6-6-6-6-6-|
-0-0-0-0-0-0-0-0-8-8-8-8-8-8-8-8-3-3-3-3-3-3-3-3-6-6-6-6-6-6-6-6-|
-0-0-0-0-0-0-0-0-8-8-8-8-8-8-8-8-3-3-3-3-3-3-3-3-6-6-6-6-6-6-6-6-|
   .   . .   . .   .   . .   .     .   . .   . .   .   . .   .

-------------------------------------------------------------------------------|
-------------------------------------------------------------------------------|
-------------------------------------------------------------------------------|
-0-0-0-0-0-0-0-0-8-8-8-8-8-8-8-8-3-3-3-3-3-3-3-3-6-6-6-6-6-6-6-6---------------|
-0-0-0-0-0-0-0-0-8-8-8-8-8-8-8-8-3-3-3-3-3-3-3-3-6-6-6-6-6-6-6-6----5----------|
-0-0-0-0-0-0-0-0-8-8-8-8-8-8-8-8-3-3-3-3-3-3-3-3-6-6-6-6-6-6-6-6--6---6-0-5-3*-|
   .   . .   . .   .   . .   .     .   . .   . . . . . . . .
                                                 (crescendo----)

CHORUS
Guitar 1
--------------------------------------------------------------------|
--------------------------------------------------------------------|
--------------------------------------------------------------------|
--------------------------------------------------------------------|
---------------------------------------------------------5----------|
-6b(7)-0-0---0---0-5b(6)-0-0---0---0-3b(4)-0-0---0---0-6---6-0-5-3*-|
                                                           . . .

Guitar 2
--------------------------------------------------------------------|
--------------------------------------------------------------------|
--------------------------------------------------------------------|
--------------------------------------------------------------------|
--/8----------------/7----------------/5---------------7h8-------3*-|
-------0-0---0---0-------0-0---0---0-------0-0---0---0-----0-0-0----|
                                                           . . .

Guitar 1
--------------------------------------------------------------------|
--------------------------------------------------------------------|
--------------------------------------------------------------------|
--------------------------------------------------------------------|
---------------------------------------------------------5----------|
-6b(7)-0-0---0---0-5b(6)-0-0---0---0-3b(4)-0-0---0---0-6---6-0-5-3*-|
                                                           . . .

Guitar 2
--------------------------------------------------------------------|
--------------------------------------------------------------------|
--------------------------------------------------------------------|
--------------------------------------------------------------------|
--/8----------------/7----------------/5---------------7h8-------3*-|
-------0-0---0---0-------0-0---0---0-------0-0---0---0-----0-0-0----|
                                                           . . .

Guitar 1
--------------------------------------------------------------------|
--------------------------------------------------------------------|
--------------------------------------------------------------------|
--------------------------------------------------------------------|
---------------------------------------------------------5----------|
-6b(7)-0-----------5b(6)-0-----------3b(4)-0-----------6---6-0-5-3*-|
                                                            . . .
Guitar 2
--------------------------------------------------------------------|
--------------------------------------------------------------------|
---------13131313----------12121212----------10101010---------------|
----------x-x-x-x-----------x-x-x-x-----------x-x-x-x---------------|
---------11111111----------10101010-----------8-8-8-8--7h8-------3*-|
-----------------------------------------------------------0-0-0----|
                                                           . . .

Guitar 1
--------------------------------------------------------------------|
--------------------------------------------------------------------|
--------------------------------------------------------------------|
--------------------------------------------------------------------|
---------------------------------------------------------5----------|
-6b(7)-0-----------5b(6)-0-----------3b(4)-0-----------6---6-0-5-3*-|
                                                            . . .
Guitar 2
--------------------------------------------------------------------|
--------------------------------------------------------------------|
---------13131313----------12121212----------10101010---------------|
----------x-x-x-x-----------x-x-x-x-----------x-x-x-x---------------|
---------11111111----------10101010-----------8-8-8-8--7h8-------3*-|
-----------------------------------------------------------0-0-0----|
                                                           . . .

Quiet Part
-----------------------------------------------------------------|
-----------------------------------------------------------------|
-----------------------------------------------------------------|
-0---------------------------------------------------------------|
-0---------------------------------------------------------------|
-0---------------------------------------------------------------|

(The small arpeggio-sounding part around this time was hard
for me to make out so I left it alone, but I did get the
high notes that are played with it, including the piano notes
which I made an octave lower, and it still sounds fine.)

-13--------------12--------------10--------------1-------0-------|
-----------------------------------------------------------------|
-----------------------------------------------------------------|
-----------------------------------------------------------------|  x2
-----------------------------------------------------------------|
-----------------------------------------------------------------|

HEAVY RIFF
-----------------------------------------------------------------|
-----------------------------------------------------------------|
-----------------------------------------------------------------|
-0-0-0-0-0-0-0-0-8-8-8-8-8-8-8-8-3-3-3-3-3-3-3-3-6-6-6-6-6-6-6-6-|
-0-0-0-0-0-0-0-0-8-8-8-8-8-8-8-8-3-3-3-3-3-3-3-3-6-6-6-6-6-6-6-6-|
-0-0-0-0-0-0-0-0-8-8-8-8-8-8-8-8-3-3-3-3-3-3-3-3-6-6-6-6-6-6-6-6-|
   .   . .   . .   .   . .   .     .   . .   . .   .   . .   .

-------------------------------------------------------------------------------|
-------------------------------------------------------------------------------|
-------------------------------------------------------------------------------|
-0-0-0-0-0-0-0-0-8-8-8-8-8-8-8-8-3-3-3-3-3-3-3-3-6-6-6-6-6-6-6-6---------------|
-0-0-0-0-0-0-0-0-8-8-8-8-8-8-8-8-3-3-3-3-3-3-3-3-6-6-6-6-6-6-6-6----5----------|
-0-0-0-0-0-0-0-0-8-8-8-8-8-8-8-8-3-3-3-3-3-3-3-3-6-6-6-6-6-6-6-6--6---6-0-5-3*-|
   .   . .   . .   .   . .   .     .   . .   . . . . . . . .
                                                 (crescendo----)

CHORUS
Guitar 1
--------------------------------------------------------------------|
--------------------------------------------------------------------|
--------------------------------------------------------------------|
--------------------------------------------------------------------|
---------------------------------------------------------5----------|
-6b(7)-0-0---0---0-5b(6)-0-0---0---0-3b(4)-0-0---0---0-6---6-0-5-3*-|
                                                           . . .

Guitar 2
--------------------------------------------------------------------|
--------------------------------------------------------------------|
--------------------------------------------------------------------|
--------------------------------------------------------------------|
--/8----------------/7----------------/5---------------7h8-------3*-|
-------0-0---0---0-------0-0---0---0-------0-0---0---0-----0-0-0----|
                                                           . . .

Guitar 1
--------------------------------------------------------------------|
--------------------------------------------------------------------|
--------------------------------------------------------------------|
--------------------------------------------------------------------|
---------------------------------------------------------5----------|
-6b(7)-0-0---0---0-5b(6)-0-0---0---0-3b(4)-0-0---0---0-6---6-0-5-3*-|
                                                           . . .

Guitar 2
--------------------------------------------------------------------|
--------------------------------------------------------------------|
--------------------------------------------------------------------|
--------------------------------------------------------------------|
--/8----------------/7----------------/5---------------7h8-------3*-|
-------0-0---0---0-------0-0---0---0-------0-0---0---0-----0-0-0----|
                                                           . . .

Guitar 1
--------------------------------------------------------------------|
--------------------------------------------------------------------|
--------------------------------------------------------------------|
--------------------------------------------------------------------|
---------------------------------------------------------5----------|
-6b(7)-0-----------5b(6)-0-----------3b(4)-0-----------6---6-0-5-3*-|
                                                            . . .
Guitar 2
--------------------------------------------------------------------|
--------------------------------------------------------------------|
---------13131313----------12121212----------10101010---------------|
----------x-x-x-x-----------x-x-x-x-----------x-x-x-x---------------|
---------11111111----------10101010-----------8-8-8-8--7h8-------3*-|
-----------------------------------------------------------0-0-0----|
                                                           . . .

Guitar 1
--------------------------------------------------------------------|
--------------------------------------------------------------------|
--------------------------------------------------------------------|
--------------------------------------------------------------------|
---------------------------------------------------------5----------|
-6b(7)-0-----------5b(6)-0-----------3b(4)-0-----------6---6-0-5-3*-|
                                                            . . .
Guitar 2
--------------------------------------------------------------------|
--------------------------------------------------------------------|
---------13131313----------12121212----------10101010---------------|
----------x-x-x-x-----------x-x-x-x-----------x-x-x-x---------------|
---------11111111----------10101010-----------8-8-8-8--7h8-------3*-|
-----------------------------------------------------------0-0-0----|
                                                           . . .

Breakdown
Guitar 1
---------------------------------------------------------------------|
---------------------------------------------------------------------|
---------------------------------------------------------------------|
-0-----0-----7-7-7-7-7-7-7-0-0---0-----7-7-7-7-7-7-7-6-6-6-3-3-3-6-6-|
-0-----0-------------------0-0---0-----------------------------------|
-0-----0-------------------0-0---0-----------------------------------|
 .     .     . . . . .     . .   .     . . . . .
            (crescendo)               (crescendo)

Guitar 2
---------------------------------------------------------------------|
---------------------------------------------------------------------|
---------------------------------------------------------------------|
-0-----0-------------------0-0---0-----------------------------------|
-0-----0-----8-8-8-8-8-8-8-0-0---0-----8-8-8-8-8-8-8-7-7-7-4-4-4-7-7-|
-0-----0-------------------0-0---0-----------------------------------|
 .     .     . . . . .     . .   .     . . . . .
            (crescendo)               (crescendo)

Guitar 1
---------------------------------------------------------------------|
---------------------------------------------------------------------|
---------------------------------------------------------------------|
-0-----0-----7-7-7-7-7-7-7-0-0---0-----7-7-7-7///--------------------|
-0-----0-------------------0-0---0-----------------------------------|
-0-----0-------------------0-0---0-----------------------------------|
 .     .     . . . . .     . .   .     . . .
            (crescendo)

Guitar 2
---------------------------------------------------------------------|
---------------------------------------------------------------------|
---------------------------------------------------------------------|
-0-----0-------------------0-0---0-----------------------------------|
-0-----0-----8-8-8-8-8-8-8-0-0---0-----8-8-8-8///--------------------|
-0-----0-------------------0-0---0-----------------------------------|
 .     .     . . . . .     . .   .     . . .
            (crescendo)

Guitar 1
---------------------------------------------------------------------|
---------------------------------------------------------------------|
---------------------------------------------------------------------|
-0-----0-----7-7-7-7-7-7-7-0-0---0-----7-7-7-7-7-7-7-6-6-6-3-3-3-6-6-|
-0-----0-------------------0-0---0-----------------------------------|
-0-----0-------------------0-0---0-----------------------------------|
 .     .     . . . . .     . .   .     . . . . .
            (crescendo)               (crescendo)

Guitar 2
---------------------------------------------------------------------|
---------------------------------------------------------------------|
---------------------------------------------------------------------|
-0-----0-------------------0-0---0-----------------------------------|
-0-----0-----8-8-8-8-8-8-8-0-0---0-----8-8-8-8-8-8-8-7-7-7-4-4-4-7-7-|
-0-----0-------------------0-0---0-----------------------------------|
 .     .     . . . . .     . .   .     . . . . .
            (crescendo)               (crescendo)

Guitar 1
---------------------------------------------------------------------|
---------------------------------------------------------------------|
---------------------------------------------------------------------|
-0-----0-----7-7-7-7-7-7-7-0-0---0-----7-7-7-7-7-7-7-6-6-6-3-3-3-6-6-|
-0-----0-------------------0-0---0-----------------------------------|
-0-----0-------------------0-0---0-----------------------------------|
 .     .     . . . . .     . .   .     . . . . .
            (crescendo)               (crescendo)

Guitar 2
---------------------------------------------------------------------|
---------------------------------------------------------------------|
---------------------------------------------------------------------|
-0-----0-------------------0-0---0-----------------------------------|
-0-----0-----8-8-8-8-8-8-8-0-0---0-----8-8-8-8-8-8-8-7-7-7-4-4-4-7-7-|
-0-----0-------------------0-0---0-----------------------------------|
 .     .     . . . . .     . .   .     . . . . .
            (crescendo)               (crescendo)


Build-Up
Guitar 1
(The drums make these notes seem like they're timed and spaced
differently but I'm pretty sure that this is correct)
-----------------------------------------------------------------|
-----------------------------------------------------------------|
-----------------------------------------------------------------|
-0-0-0-0-0-0-0-0-2-2-2-2-2-2-2-2-3-3-3-3-3-3-3-3-5-5-5-5-5-5-5-5-|
-0-0-0-0-0-0-0-0-2-2-2-2-2-2-2-2-3-3-3-3-3-3-3-3-5-5-5-5-5-5-5-5-|
-0-0-0-0-0-0-0-0-2-2-2-2-2-2-2-2-3-3-3-3-3-3-3-3-5-5-5-5-5-5-5-5-|
 . . . . . . . . . . . . . . . . . . . . . . . . . . . . . . . .

Guitar 2---

Guitar 1
-----------------------------------------------------------------|
-----------------------------------------------------------------|
-----------------------------------------------------------------|
-3-3-3-3-3-3-3-3-5-5-5-5-5-5-5-5-5-5-5-5-5-5-5-5-6-6-6-6-6-6-6-6-|
-1-1-1-1-1-1-1-1-3-3-3-3-3-3-3-3-4-4-4-4-4-4-4-4-5-5-5-5-5-5-5-5-|
-----------------------------------------------------------------|
 . . . . . . . . . . . . . . . . . . . . . . . . . . . . . . . . --- (lightly muted)

Guitar 2
-13--------------15--------------16--------------18--------------
-15b(17)~~~~~~~~~17b(19)~~~~~~~~~18b(20)~~~~~~~~~20b(22)~~~~~~~~~
-----------------------------------------------------------------|
-----------------------------------------------------------------|
-----------------------------------------------------------------|
-----------------------------------------------------------------|

CHORUS
Guitar 1
--------------------------------------------------------------------|
--------------------------------------------------------------------|
--------------------------------------------------------------------|
--------------------------------------------------------------------|
---------------------------------------------------------5----------|
-6b(7)-0-0---0---0-5b(6)-0-0---0---0-3b(4)-0-0---0---0-6---6-0-5-3*-|
                                                           . . .

Guitar 2
--------------------------------------------------------------------|
--------------------------------------------------------------------|
--------------------------------------------------------------------|
--------------------------------------------------------------------|
--/8----------------/7----------------/5---------------7h8-------3*-|
-------0-0---0---0-------0-0---0---0-------0-0---0---0-----0-0-0----|
                                                           . . .

Guitar 1
--------------------------------------------------------------------|
--------------------------------------------------------------------|
--------------------------------------------------------------------|
--------------------------------------------------------------------|
---------------------------------------------------------5----------|
-6b(7)-0-0---0---0-5b(6)-0-0---0---0-3b(4)-0-0---0---0-6---6-0-5-3*-|
                                                           . . .

Guitar 2
--------------------------------------------------------------------|
--------------------------------------------------------------------|
--------------------------------------------------------------------|
--------------------------------------------------------------------|
--/8----------------/7----------------/5---------------7h8-------3*-|
-------0-0---0---0-------0-0---0---0-------0-0---0---0-----0-0-0----|
                                                           . . .

Guitar 1
--------------------------------------------------------------------|
--------------------------------------------------------------------|
--------------------------------------------------------------------|
--------------------------------------------------------------------|
---------------------------------------------------------5----------|
-6b(7)-0-----------5b(6)-0-----------3b(4)-0-----------6---6-0-5-3*-|
                                                            . . .
Guitar 2
--------------------------------------------------------------------|
--------------------------------------------------------------------|
---------13131313----------12121212----------10101010---------------|
----------x-x-x-x-----------x-x-x-x-----------x-x-x-x---------------|
---------11111111----------10101010-----------8-8-8-8--7h8-------3*-|
-----------------------------------------------------------0-0-0----|
                                                           . . .

Guitar 1
--------------------------------------------------------------------|
--------------------------------------------------------------------|
--------------------------------------------------------------------|
--------------------------------------------------------------------|
---------------------------------------------------------5----------|
-6b(7)-0-----------5b(6)-0-----------3b(4)-0-----------6---6-0-5-3*-|
                                                            . . .
Guitar 2
--------------------------------------------------------------------|
--------------------------------------------------------------------|
---------13131313----------12121212----------10101010---------------|
----------x-x-x-x-----------x-x-x-x-----------x-x-x-x---------------|
---------11111111----------10101010-----------8-8-8-8--7h8-------3*-|
-----------------------------------------------------------0-0-0----|
                                                           . . .

Modified Riff
Guitar 1
---------------------------------|
---------------------------------|
---------------------------------|
-0-0-0-0-0-0-0-0-----------------|  x3
-0-0-0-0-0-0-0-0---5-------------|
-0-0-0-0-0-0-0-0-6---6-0-5-3-----|
   . .   . .   . .

Guitar 2---

Outro
Guitar 1
-------------|
-------------|
-------------|
-0-0-0-0---0-|
-0-0-0-0---0-|
-0-0-0-0---0-|
   . .

Guitar 2
(Repeats while fading out)
--------------------------------------------------------------------|
--------------------------------------------------------------------|
-----7---7-----7-----9---9-----9-----10---10-----10-----6---6-----6-|
---0---0---0-------0---0---0-------0----0----0--------0---0---0-----|
-5-----------5---7-----------7---8-------------8----4-----------4---|
--------------------------------------------------------------------|





Comments


Popular Egypt Central tabs & chords
Different Chords
Backfire 1 Tabs
Different Tabs
Enemy Inside Part 2 Tabs
Taking You Down Tabs
Taking You Down 1 Tabs
White Rabbit Tabs
You Make Me Sick Tabs
You Make Me Sick 2 Tabs
Home Ukulele


Song lyrics



↑ Back to top | Tablatures and chords are parodies/interpretations of the original songs. You may use it for private study, scholarship, research or language learning purposes only
© 2014 AZChords.com Contact us | Privacy policy | DMCA | Add/correct tabs | Request tabs | Top 50 tabs