>
 >
Different

Different Guitar Tabs

Egypt Central - Different chords, tabs, tablatures, lyrics

Guitar lessons | Add/correct | Request | Top 50 tabs Artists:  A B C D E F G H I J K L M N O P Q R S T U V W X Y Z 0-9

Different Guitar Tabs – Egypt Central

CD, Sheet music, Poster

Do you like Different? Share with your friends now
ChordsTabsUkulele
----------------------------------------------------------------------------
                                 Different
                               Egypt Central
----------------------------------------------------------------------------

ago, so I found minor flaws in it. In this tab I eliminated the mistakes and I glad 
because at least now I know Iíve got it accurate. Enjoy!

Username: dkm817 (same on X box live)

Guitar 1 Rhythmic (C# G# C# F# A# D#)
Guitar 2 Lead     (C# G# C# F# A# D#)

Intro 1=============================================================


Guitar 1 (Echo Effect)
D#------------------------------------------------------------------|
A#------------------------------------------------------------------|
F#---------9/--12---9~~~~~~-9---0---------------------------0~~~~~~-|
C#-----9------------------------------------10h-12--9~~~~~~---------|
G#-7------------------------------------10--------------------------|
C#----------------------------------10------------------------------|


Guitar 1
D#------------------------------------------------------------------|
A#------------------------------------------------------------------|
F#---------9/--12---9~~~~~~-9---0-----------------------------------|
C#-----9------------------------------------10h-12--9~~~~~~-9-9-9-9-|
G#-7------------------------------------10--------------------------|
C#----------------------------------10------------------------------|

Guitar 2
D#------------------------------------------------------------------|
A#------------------------------------------------------------------|
F#------------------------------------------------------------------|
C#----------------------------------------------------------x-x-x-x-|
G#----------------------------------------------------------x-x-x-x-|
C#----------------------------------------------------------x-x-x-x-|


Intro 2=============================================================


Guitar 1 & 2
D#-------------------------------------------------------------------|
A#-------------------------------------------------------------------|
F#-------------------------------------------------------------------|
C#-2~~~~~~-2~~~~~~-x---x---x---x---2~~~~~~-2~~~~~~-x---x---5~~~~~~~~-|
G#-2~~~~~~-2~~~~~~-x---x---x---x---2~~~~~~-2~~~~~~-x---x---5~~~~~~~~-|
C#-2~~~~~~-2~~~~~~-x---x---x---x---2~~~~~~-2~~~~~~-x---x---5~~~~~~~~-|


Guitar 1
D#------------------------------------------------------------------|
A#---------------------------------8---10--10--10--10--8---8---8----|
F#---------------------------------x---x---x---x---x---x---x---x----|
C#-~~~~~~~-5~~~~~~-5---5---5---5---5---7---7---7---7---5---5---5----|
G#-~~~~~~~-5~~~~~~-5---5---5---5------------------------------------|
C#-~~~~~~~-5~~~~~~-5---5---5---5------------------------------------|

Guitar 2
D#------------------------------------------------------------------|
A#------------------------------------------------------------------|
F#------------------------------------------------------------------|
C#-~~~~~~~-5~~~~~~-5---5---5---5---5---7---7---5---7---5------------|
G#-~~~~~~~-5~~~~~~-5---5---5---5---------------------------7---5----|
C#-~~~~~~~-5~~~~~~-5---5---5---5------------------------------------|


Guitar 1 & 2
D#-------------------------------------------------------------------|
A#-------------------------------------------------------------------|
F#-------------------------------------------------------------------|
C#-2~~~~~~-2~~~~~~-x---x---x---x---2~~~~~~-2~~~~~~-x---x---5~~~~~~~~-|
G#-2~~~~~~-2~~~~~~-x---x---x---x---2~~~~~~-2~~~~~~-x---x---5~~~~~~~~-|
C#-2~~~~~~-2~~~~~~-x---x---x---x---2~~~~~~-2~~~~~~-x---x---5~~~~~~~~-|


Guitar 1 & 2
D#------------------------------------------------------------------|
A#------------------------------------------------------------------|
F#------------------------------------------------------------------|
C#-~~~~~~~-5~~~~~~-5---5---5---5---5---5---9---9---4---4---7---7----|
G#-~~~~~~~-5~~~~~~-5---5---5---5------------------------------------|
C#-~~~~~~~-5~~~~~~-5---5---5---5------------------------------------|
pm                                 .   .           .   .


Verse==============================================================


Guitar 1
D#------------------------------------------------------------------|
A#------------------------------------------------------------------|
F#---------9/--12---9~~~~~~-9---0---------------------------0~~~~~~-|
C#-----9------------------------------------10h-12--9~~~~~~---------|
G#-7------------------------------------10--------------------------|
C#----------------------------------10------------------------------|


Guitar 1
D#------------------------------------------------------------------|
A#------------------------------------------------------------------|
F#---------9/--12---9~~~~~~-9---0---------------------------0~~~~~~-|
C#-----9------------------------------------10h-12--9~~~~~~---------|
G#-7------------------------------------10--------------------------|
C#----------------------------------10------------------------------|


Pre Chorus==========================================================


Guitar 1
D#------------------------------------------------------------------|
A#------------------------------------------------------------------|
F#---------9/--12---9~~~~~~-9---0---------------------------0~~~~~~-|
C#-----9------------------------------------10h-12--9~~~~~~---------|
G#-7------------------------------------10--------------------------|
C#----------------------------------10------------------------------|

Guitar 2
D#------------------------------------------------------------------|
A#------------------------------------------------------------------|
F#------------------------------------------------------------------|
C#-17\~~~~~~~~~~--14\~~~~~~~~~~~~~--14--14--14-14--12--12-12--12-12-|
G#------------------------------------------------------------------|
C#------------------------------------------------------------------|
pm                                  .              .


Guitar 1
D#------------------------------------------------------------------|
A#------------------------------------------------------------------|
F#---------9/--12---9~~~~~~-9---0-----------------------------------|
C#-----9------------------------------------10h-12--9~~~~~~-9-9-9-9-|
G#-7------------------------------------10--------------------------|
C#----------------------------------10------------------------------|

Guitar 2
D#------------------------------------------------------------------|
A#------------------------------------------------------------------|
F#------------------------------------------------------------------|
C#-17\~~~~~~~~~~--14\~~~~~~~~~~~~~--14--14--14-14--12~~~~~~-x-x-x-x-|
G#----------------------------------------------------------x-x-x-x-|
C#----------------------------------------------------------x-x-x-x-|
pm                                  .


Chorus 1============================================================


Guitar 1 & 2
D#-------------------------------------------------------------------|
A#-------------------------------------------------------------------|
F#-------------------------------------------------------------------|
C#-2~~~~~~-2~~~~~~-x---x---x---x---2~~~~~~-2~~~~~~-x---x---5~~~~~~~~-|
G#-2~~~~~~-2~~~~~~-x---x---x---x---2~~~~~~-2~~~~~~-x---x---5~~~~~~~~-|
C#-2~~~~~~-2~~~~~~-x---x---x---x---2~~~~~~-2~~~~~~-x---x---5~~~~~~~~-|


Guitar 1
D#------------------------------------------------------------------|
A#---------------------------------8---10--10--10--10--8---8---8----|
F#---------------------------------x---x---x---x---x---x---x---x----|
C#-~~~~~~~-5~~~~~~-5---5---5---5---5---7---7---7---7---5---5---5----|
G#-~~~~~~~-5~~~~~~-5---5---5---5------------------------------------|
C#-~~~~~~~-5~~~~~~-5---5---5---5------------------------------------|

Guitar 2
D#------------------------------------------------------------------|
A#------------------------------------------------------------------|
F#------------------------------------------------------------------|
C#-~~~~~~~-5~~~~~~-5---5---5---5---5---7---7---5---7---5------------|
G#-~~~~~~~-5~~~~~~-5---5---5---5---------------------------7---5----|
C#-~~~~~~~-5~~~~~~-5---5---5---5------------------------------------|


Guitar 1 & 2
D#-------------------------------------------------------------------|
A#-------------------------------------------------------------------|
F#-------------------------------------------------------------------|
C#-2~~~~~~-2~~~~~~-x---x---x---x---2~~~~~~-2~~~~~~-x---x---5~~~~~~~~-|
G#-2~~~~~~-2~~~~~~-x---x---x---x---2~~~~~~-2~~~~~~-x---x---5~~~~~~~~-|
C#-2~~~~~~-2~~~~~~-x---x---x---x---2~~~~~~-2~~~~~~-x---x---5~~~~~~~~-|


Guitar 1 & 2
D#------------------------------------------------------------------|
A#------------------------------------------------------------------|
F#------------------------------------------------------------------|
C#-~~~~~~~-5~~~~~~-5---5---5---5---5---5---9---9---4---4---7---7----|
G#-~~~~~~~-5~~~~~~-5---5---5---5------------------------------------|
C#-~~~~~~~-5~~~~~~-5---5---5---5------------------------------------|
pm                                 .   .           .   .


Guitar 1 & 2
D#-------------------------------------------------------------------|
A#-------------------------------------------------------------------|
F#-------------------------------------------------------------------|
C#-2~~~~~~-2~~~~~~-x---x---x---x---2~~~~~~-2~~~~~~-x---x---5~~~~~~~~-|
G#-2~~~~~~-2~~~~~~-x---x---x---x---2~~~~~~-2~~~~~~-x---x---5~~~~~~~~-|
C#-2~~~~~~-2~~~~~~-x---x---x---x---2~~~~~~-2~~~~~~-x---x---5~~~~~~~~-|


Guitar 1
D#------------------------------------------------------------------|
A#---------------------------------8---10--10--10--10--8---8---8----|
F#---------------------------------x---x---x---x---x---x---x---x----|
C#-~~~~~~~-5~~~~~~-5---5---5---5---5---7---7---7---7---5---5---5----|
G#-~~~~~~~-5~~~~~~-5---5---5---5------------------------------------|
C#-~~~~~~~-5~~~~~~-5---5---5---5------------------------------------|

Guitar 2
D#------------------------------------------------------------------|
A#------------------------------------------------------------------|
F#------------------------------------------------------------------|
C#-~~~~~~~-5~~~~~~-5---5---5---5---5---7---7---5---7---5------------|
G#-~~~~~~~-5~~~~~~-5---5---5---5---------------------------7---5----|
C#-~~~~~~~-5~~~~~~-5---5---5---5------------------------------------|


Guitar 1 & 2
D#-------------------------------------------------------------------|
A#-------------------------------------------------------------------|
F#-------------------------------------------------------------------|
C#-2~~~~~~-2~~~~~~-x---x---x---x---2~~~~~~-2~~~~~~-x---x---5~~~~~~~~-|
G#-2~~~~~~-2~~~~~~-x---x---x---x---2~~~~~~-2~~~~~~-x---x---5~~~~~~~~-|
C#-2~~~~~~-2~~~~~~-x---x---x---x---2~~~~~~-2~~~~~~-x---x---5~~~~~~~~-|


Guitar 1
D#------------------------------------------------------------------|
A#---------------------------------8~~~~~~~~~~~~~~-5~~~~~~~~~~~~~~~-|
F#---------------------------------x---------------x----------------|
C#-~~~~~~~-5~~~~~~-5---5---5---5---5~~~~~~~~~~~~~~-2~~~~~~~~~~~~~~~-|
G#-~~~~~~~-5~~~~~~-5---5---5---5------------------------------------|
C#-~~~~~~~-5~~~~~~-5---5---5---5------------------------------------|

Guitar 2
D#------------------------------------------------------------------|
A#------------------------------------------------------------------|
F#------------------------------------------------------------------|
C#-~~~~~~~-5~~~~~~-5---5---5---5---12~~~~~~~~~~~~~~\~~~~~~~~~~~~~~~-|
G#-~~~~~~~-5~~~~~~-5---5---5---5---12~~~~~~~~~~~~~~\~~~~~~~~~~~~~~~-|
C#-~~~~~~~-5~~~~~~-5---5---5---5---12~~~~~~~~~~~~~~\~~~~~~~~~~~~~~~-|


Verse==============================================================


Guitar 1
D#------------------------------------------------------------------|
A#------------------------------------------------------------------|
F#---------9/--12---9~~~~~~-9---0---------------------------0~~~~~~-|
C#-----9------------------------------------10h-12--9~~~~~~---------|
G#-7------------------------------------10--------------------------|
C#----------------------------------10------------------------------|


Guitar 1
D#------------------------------------------------------------------|
A#------------------------------------------------------------------|
F#---------9/--12---9~~~~~~-9---0---------------------------0~~~~~~-|
C#-----9------------------------------------10h-12--9~~~~~~---------|
G#-7------------------------------------10--------------------------|
C#----------------------------------10------------------------------|


Pre Chorus==========================================================


Guitar 1
D#------------------------------------------------------------------|
A#------------------------------------------------------------------|
F#---------9/--12---9~~~~~~-9---0---------------------------0~~~~~~-|
C#-----9------------------------------------10h-12--9~~~~~~---------|
G#-7------------------------------------10--------------------------|
C#----------------------------------10------------------------------|

Guitar 2
D#------------------------------------------------------------------|
A#------------------------------------------------------------------|
F#------------------------------------------------------------------|
C#-17\~~~~~~~~~~--14\~~~~~~~~~~~~~--14--14--14-14--12--12-12--12-12-|
G#------------------------------------------------------------------|
C#------------------------------------------------------------------|
pm                                  .              .


Guitar 1
D#------------------------------------------------------------------|
A#------------------------------------------------------------------|
F#---------9/--12---9~~~~~~-9---0-----------------------------------|
C#-----9------------------------------------10h-12--9~~~~~~-9-9-9-9-|
G#-7------------------------------------10--------------------------|
C#----------------------------------10------------------------------|

Guitar 2
D#------------------------------------------------------------------|
A#------------------------------------------------------------------|
F#------------------------------------------------------------------|
C#-17\~~~~~~~~~~--14\~~~~~~~~~~~~~--14--14--14-14--12~~~~~~-x-x-x-x-|
G#----------------------------------------------------------x-x-x-x-|
C#----------------------------------------------------------x-x-x-x-|
pm                                  .


Chorus 1============================================================


Guitar 1 & 2
D#-------------------------------------------------------------------|
A#-------------------------------------------------------------------|
F#-------------------------------------------------------------------|
C#-2~~~~~~-2~~~~~~-x---x---x---x---2~~~~~~-2~~~~~~-x---x---5~~~~~~~~-|
G#-2~~~~~~-2~~~~~~-x---x---x---x---2~~~~~~-2~~~~~~-x---x---5~~~~~~~~-|
C#-2~~~~~~-2~~~~~~-x---x---x---x---2~~~~~~-2~~~~~~-x---x---5~~~~~~~~-|


Guitar 1
D#------------------------------------------------------------------|
A#---------------------------------8---10--10--10--10--8---8---8----|
F#---------------------------------x---x---x---x---x---x---x---x----|
C#-~~~~~~~-5~~~~~~-5---5---5---5---5---7---7---7---7---5---5---5----|
G#-~~~~~~~-5~~~~~~-5---5---5---5------------------------------------|
C#-~~~~~~~-5~~~~~~-5---5---5---5------------------------------------|

Guitar 2
D#------------------------------------------------------------------|
A#------------------------------------------------------------------|
F#------------------------------------------------------------------|
C#-~~~~~~~-5~~~~~~-5---5---5---5---5---7---7---5---7---5------------|
G#-~~~~~~~-5~~~~~~-5---5---5---5---------------------------7---5----|
C#-~~~~~~~-5~~~~~~-5---5---5---5------------------------------------|


Guitar 1 & 2
D#-------------------------------------------------------------------|
A#-------------------------------------------------------------------|
F#-------------------------------------------------------------------|
C#-2~~~~~~-2~~~~~~-x---x---x---x---2~~~~~~-2~~~~~~-x---x---5~~~~~~~~-|
G#-2~~~~~~-2~~~~~~-x---x---x---x---2~~~~~~-2~~~~~~-x---x---5~~~~~~~~-|
C#-2~~~~~~-2~~~~~~-x---x---x---x---2~~~~~~-2~~~~~~-x---x---5~~~~~~~~-|


Guitar 1 & 2
D#------------------------------------------------------------------|
A#------------------------------------------------------------------|
F#------------------------------------------------------------------|
C#-~~~~~~~-5~~~~~~-5---5---5---5---5---5---9---9---4---4---7---7----|
G#-~~~~~~~-5~~~~~~-5---5---5---5------------------------------------|
C#-~~~~~~~-5~~~~~~-5---5---5---5------------------------------------|
pm                                 .   .           .   .


Guitar 1 & 2
D#-------------------------------------------------------------------|
A#-------------------------------------------------------------------|
F#-------------------------------------------------------------------|
C#-2~~~~~~-2~~~~~~-x---x---x---x---2~~~~~~-2~~~~~~-x---x---5~~~~~~~~-|
G#-2~~~~~~-2~~~~~~-x---x---x---x---2~~~~~~-2~~~~~~-x---x---5~~~~~~~~-|
C#-2~~~~~~-2~~~~~~-x---x---x---x---2~~~~~~-2~~~~~~-x---x---5~~~~~~~~-|


Guitar 1
D#------------------------------------------------------------------|
A#---------------------------------8---10--10--10--10--8---8---8----|
F#---------------------------------x---x---x---x---x---x---x---x----|
C#-~~~~~~~-5~~~~~~-5---5---5---5---5---7---7---7---7---5---5---5----|
G#-~~~~~~~-5~~~~~~-5---5---5---5------------------------------------|
C#-~~~~~~~-5~~~~~~-5---5---5---5------------------------------------|

Guitar 2
D#------------------------------------------------------------------|
A#------------------------------------------------------------------|
F#------------------------------------------------------------------|
C#-~~~~~~~-5~~~~~~-5---5---5---5---5---7---7---5---7---5------------|
G#-~~~~~~~-5~~~~~~-5---5---5---5---------------------------7---5----|
C#-~~~~~~~-5~~~~~~-5---5---5---5------------------------------------|


Guitar 1 & 2
D#-------------------------------------------------------------------|
A#-------------------------------------------------------------------|
F#-------------------------------------------------------------------|
C#-2~~~~~~-2~~~~~~-x---x---x---x---2~~~~~~-2~~~~~~-x---x---5~~~~~~~~-|
G#-2~~~~~~-2~~~~~~-x---x---x---x---2~~~~~~-2~~~~~~-x---x---5~~~~~~~~-|
C#-2~~~~~~-2~~~~~~-x---x---x---x---2~~~~~~-2~~~~~~-x---x---5~~~~~~~~-|


Guitar 1
D#------------------------------------------------------------------|
A#---------------------------------8~~~~~~~~~~~~~~-5~~~~~~~~~~~~~~~-|
F#---------------------------------x---------------x----------------|
C#-~~~~~~~-5~~~~~~-5---5---5---5---5~~~~~~~~~~~~~~-2~~~~~~~~~~~~~~~-|
G#-~~~~~~~-5~~~~~~-5---5---5---5------------------------------------|
C#-~~~~~~~-5~~~~~~-5---5---5---5------------------------------------|

Guitar 2
D#------------------------------------------------------------------|
A#------------------------------------------------------------------|
F#------------------------------------------------------------------|
C#-~~~~~~~-5~~~~~~-5---5---5---5---12~~~~~~~~~~~~~~\~~~~~~~~~~~~~~~-|
G#-~~~~~~~-5~~~~~~-5---5---5---5---12~~~~~~~~~~~~~~\~~~~~~~~~~~~~~~-|
C#-~~~~~~~-5~~~~~~-5---5---5---5---12~~~~~~~~~~~~~~\~~~~~~~~~~~~~~~-|


Interlude 1=========================================================


Guitar 1 & 2
D#------------------------------------------------------------------|
A#------------------------------------------------------------------|
F#------------------------------------------------------------------|
C#-----------------9~~~~~~-----------------9~~~~~~---------9~~~~~~--|
G#------------------------------------------------------------------|
C#-10--10--10--10----------10--10--10--10----------10--10-----------|
pm .   .   .   .           .   .   .   .           .   .


Guitar 1 & 2
D#------------------------------------------------------------------|
A#------------------------------------------------------------------|
F#------------------------------------------------------------------|
C#-----------------9~~~~~~-----------------9~~~~~~---------9~~~~~~--|
G#------------------------------------------------------------------|
C#-10--10--10--10----------10--10--10--10----------10--10-----------|
pm .   .   .   .           .   .   .   .           .   .



Guitar 1 & 2
D#------------------------------------------------------------------|
A#------------------------------------------------------------------|
F#------------------------------------------------------------------|
C#-----------------9~~~~~~-----------------9~~~~~~---------9~~~~~~--|
G#-0---0---0---0-----------0---0---0---0-----------0---0------------|
C#------------------------------------------------------------------|
pm .   .   .   .           .   .   .   .           .   .


Guitar 1
D#------------------------------------------------------------------|
A#------------------------------------------------------------------|
F#------------------------------------------------------------------|
C#-----------------9~~~~~~-----------------9~~~~~~---------9~~~~~~--|
G#-0---0---0---0-----------0---0---0---0-----------0---0------------|
C#------------------------------------------------------------------|
pm .   .   .   .           .   .   .   .           .   .

Guitar 2
D#------------------------------------------------------------------|
A#------------------------------------------------------------------|
F#------------------------------------------------------------------|
C#-----------------9~~~~~~--------/12--12--10--10--9---9------------|
G#-0---0---0---0-----------0---0---------------------------10~~\~~--|
C#------------------------------------------------------------------|
pm .   .   .   .           .   .


Guitar 1 & 2
D#------------------------------------------------------------------|
A#------------------------------------------------------------------|
F#------------------------------------------------------------------|
C#-----------------9~~~~~~-----------------9~~~~~~---------9~~~~~~--|
G#------------------------------------------------------------------|
C#-10--10--10--10----------10--10--10--10----------10--10-----------|
pm .   .   .   .           .   .   .   .           .   .


Guitar 1 & 2
D#------------------------------------------------------------------|
A#------------------------------------------------------------------|
F#------------------------------------------------------------------|
C#-----------------9~~~~~~-----------------9~~~~~~---------9~~~~~~--|
G#------------------------------------------------------------------|
C#-10--10--10--10----------10--10--10--10----------10--10-----------|
pm .   .   .   .           .   .   .   .           .   .



Guitar 1 & 2
D#------------------------------------------------------------------|
A#------------------------------------------------------------------|
F#------------------------------------------------------------------|
C#-----------------9~~~~~~-----------------9~~~~~~---------9~~~~~~--|
G#-0---0---0---0-----------0---0---0---0-----------0---0------------|
C#------------------------------------------------------------------|
pm .   .   .   .           .   .   .   .           .   .


Guitar 1 & 2
D#------------------------------------------------------------------|
A#------------------------------------------------------------------|
F#------------------------------------------------------------------|
C#-----------------9~~~~~~--------/12--12--10--10--9---9------------|
G#-0---0---0---0-----------0---0---------------------------10~~\~~--|
C#------------------------------------------------------------------|
pm .   .   .   .           .   .


Interlude 2=========================================================


Guitar 1 & 2
D#------------------------------------------------------------------|
A#------------------------------------------------------------------|
F#---------------------------------------------------------12~~~~~--|
C#-----------------9~~~~~~-----------------9~~~~~~------------------|
G#------------------------------------------------------------------|
C#-10--10--10--10----------10--10--10--10----------10--10-----------|
pm .   .   .   .           .   .   .   .           .   .


Guitar 1 & 2
D#------------------------------------------------------------------|
A#------------------------------------------------------------------|
F#---------------------------------------------------------12~~~~~--|
C#-----------------9~~~~~~-----------------9~~~~~~------------------|
G#------------------------------------------------------------------|
C#-10--10--10--10----------10--10--10--10----------10--10-----------|
pm .   .   .   .           .   .   .   .           .   .


Guitar 1
D#------------------------------------------------------------------|
A#------------------------------------------------------------------|
F#---------------------------------------------------------12~~~~~--|
C#-----------------9~~~~~~-----------------9~~~~~~------------------|
G#-0---0---0---0-----------0---0---0---0-----------0---0------------|
C#------------------------------------------------------------------|
pm .   .   .   .           .   .   .   .           .   .

Guitar 2
D#------------------------------------------------------------------|
A#------------------------------------------------------------------|
F#-----------------12~~~~~-----------------12~~~~~---------12~~~~~--|
C#------------------------------------------------------------------|
G#-0---0---0---0-----------0---0---0---0-----------0---0------------|
C#------------------------------------------------------------------|
pm .   .   .   .           .   .   .   .           .   .


Guitar 1
D#------------------------------------------------------------------|
A#------------------------------------------------------------------|
F#------------------------------------------------------------------|
C#-----------------9~~~~~~--------/12--12--10--10--9---9------------|
G#-0---0---0---0-----------0---0---------------------------10~~\~~--|
C#------------------------------------------------------------------|
pm .   .   .   .           .   .

Guitar 2
D#------------------------------------------------------------------|
A#------------------------------------------------------------------|
F#-----------------12~~~~~------------------------------------------|
C#--------------------------------/12--12--10--10--9---9------------|
G#-0---0---0---0-----------0---0---------------------------10~~\~~--|
C#------------------------------------------------------------------|
pm .   .   .   .           .   .


Guitar 1 & 2
D#------------------------------------------------------------------|
A#------------------------------------------------------------------|
F#---------------------------------------------------------12~~~~~--|
C#-----------------9~~~~~~-----------------9~~~~~~------------------|
G#------------------------------------------------------------------|
C#-10--10--10--10----------10--10--10--10----------10--10-----------|
pm .   .   .   .           .   .   .   .           .   .


Guitar 1 & 2
D#------------------------------------------------------------------|
A#------------------------------------------------------------------|
F#---------------------------------------------------------12~~~~~--|
C#-----------------9~~~~~~-----------------9~~~~~~------------------|
G#------------------------------------------------------------------|
C#-10--10--10--10----------10--10--10--10----------10--10-----------|
pm .   .   .   .           .   .   .   .           .   .


Guitar 1
D#------------------------------------------------------------------|
A#------------------------------------------------------------------|
F#---------------------------------------------------------12~~~~~--|
C#-----------------9~~~~~~-----------------9~~~~~~------------------|
G#-0---0---0---0-----------0---0---0---0-----------0---0------------|
C#------------------------------------------------------------------|
pm .   .   .   .           .   .   .   .           .   .

Guitar 2
D#------------------------------------------------------------------|
A#------------------------------------------------------------------|
F#-----------------12~~~~~-----------------12~~~~~---------12~~~~~--|
C#------------------------------------------------------------------|
G#-0---0---0---0-----------0---0---0---0-----------0---0------------|
C#------------------------------------------------------------------|
pm .   .   .   .           .   .   .   .           .   .


Guitar 1
D#------------------------------------------------------------------|
A#------------------------------------------------------------------|
F#------------------------------------------------------------------|
C#-----------------9~~~~~~--------/12--12--10--10--9---9---10~~~~~--|
G#-0---0---0---0-----------0---0------------------------------------|
C#------------------------------------------------------------------|
pm .   .   .   .           .   .

Guitar 2
D#------------------------------------------------------------------|
A#------------------------------------------------------------------|
F#-----------------12~~~~~------------------------------------------|
C#--------------------------------/12--12--10--10--9---9---10~~~~~--|
G#-0---0---0---0-----------0---0------------------------------------|
C#------------------------------------------------------------------|
pm .   .   .   .           .   .


Bridge==============================================================


Guitar 1
D#------------------------------------------------------------------|
A#------------------------------------------------------------------|
F#------------------------------------------------------------------|
C#------------------------------------------------------------------|
G#-7~~~~~~~~~~~~~~~~~~~~~~~~~~~~~~~~~~~~~~~~~~~~~~~~~~~~~~~~~~~~~~--
C#------------------------------------------------------------------

Guitar 2
D#------------------------------------------------------------------|
A#-------------------------------------------------17~~~~~~~~~~~~~--|
F#------------------------------------------------------------------|
C#------------------------------------------------------------------|
G#-7~~~~~~~~~~~~~~~~~~~~~~~~~~~~~~~~~~~~~~~~~~~~~~------------------|
C#------------------------------------------------------------------|


Guitar 2
D#-------------------------15~~~~~~~~~~~~~--------------------------|
A#-15~~~~~~~~~~~~~~~~~~~~~-----------------19~~~~~~~~~~~~~~~~~~~~~--|
F#------------------------------------------------------------------|
C#------------------------------------------------------------------|
G#------------------------------------------------------------------|
C#------------------------------------------------------------------|


Guitar 2
D#-19~~~~~~~~~~~~~~~~~~~~~------------------------------------------|
A#-------------------------17~~~~~~~~~~~~~---------17~~~~~-15~~~~~--|
F#-----------------------------------------16~~~~~------------------|
C#------------------------------------------------------------------|
G#------------------------------------------------------------------|
C#------------------------------------------------------------------|


Guitar 1
D#------------------------------------------------------------------|
A#------------------------------------------------------------------|
F#------------------------------------------------------------------|
C#-------------------------------------------------x---x---x---x----|
G#-------------------------------------------------x---x---x---x----|
C#-------------------------------------------------x---x---x---x----|

Guitar 2
D#-------------------------15~~~~~~~~~~~~~~~~~~~~~------------------|
A#-17~~~~~~~~~~~~~~~~~~~~~------------------------------------------|
F#------------------------------------------------------------------|
C#-------------------------------------------------x---x---x---x----|
G#-------------------------------------------------x---x---x---x----|
C#-------------------------------------------------x---x---x---x----|


Chorus 2============================================================


Guitar 1 & 2
D#-------------------------------------------------------------------|
A#-------------------------------------------------------------------|
F#-------------------------------------------------------------------|
C#-2~~~~~~-2~~~~~~-x---x---x---x---2~~~~~~-2~~~~~~-x---x---5~~~~~~~~-|
G#-2~~~~~~-2~~~~~~-x---x---x---x---2~~~~~~-2~~~~~~-x---x---5~~~~~~~~-|
C#-2~~~~~~-2~~~~~~-x---x---x---x---2~~~~~~-2~~~~~~-x---x---5~~~~~~~~-|


Guitar 1
D#------------------------------------------------------------------|
A#---------------------------------8---10--10--10--10--8---8---8----|
F#---------------------------------x---x---x---x---x---x---x---x----|
C#-~~~~~~~-5~~~~~~-5---5---5---5---5---7---7---7---7---5---5---5----|
G#-~~~~~~~-5~~~~~~-5---5---5---5------------------------------------|
C#-~~~~~~~-5~~~~~~-5---5---5---5------------------------------------|

Guitar 2
D#------------------------------------------------------------------|
A#------------------------------------------------------------------|
F#------------------------------------------------------------------|
C#-~~~~~~~-5~~~~~~-5---5---5---5---5---7---7---5---7---5------------|
G#-~~~~~~~-5~~~~~~-5---5---5---5---------------------------7---5----|
C#-~~~~~~~-5~~~~~~-5---5---5---5------------------------------------|


Guitar 1 & 2
D#-------------------------------------------------------------------|
A#-------------------------------------------------------------------|
F#-------------------------------------------------------------------|
C#-2~~~~~~-2~~~~~~-x---x---x---x---2~~~~~~-2~~~~~~-x---x---5~~~~~~~~-|
G#-2~~~~~~-2~~~~~~-x---x---x---x---2~~~~~~-2~~~~~~-x---x---5~~~~~~~~-|
C#-2~~~~~~-2~~~~~~-x---x---x---x---2~~~~~~-2~~~~~~-x---x---5~~~~~~~~-|


Guitar 1 & 2
D#------------------------------------------------------------------|
A#------------------------------------------------------------------|
F#------------------------------------------------------------------|
C#-~~~~~~~-5~~~~~~-5---5---5---5---5---5---9---9---4---4---7---7----|
G#-~~~~~~~-5~~~~~~-5---5---5---5------------------------------------|
C#-~~~~~~~-5~~~~~~-5---5---5---5------------------------------------|
pm                                 .   .           .   .


Guitar 1 & 2
D#-------------------------------------------------------------------|
A#-------------------------------------------------------------------|
F#-------------------------------------------------------------------|
C#-2~~~~~~-2~~~~~~-x---x---x---x---2~~~~~~-2~~~~~~-x---x---5~~~~~~~~-|
G#-2~~~~~~-2~~~~~~-x---x---x---x---2~~~~~~-2~~~~~~-x---x---5~~~~~~~~-|
C#-2~~~~~~-2~~~~~~-x---x---x---x---2~~~~~~-2~~~~~~-x---x---5~~~~~~~~-|


Guitar 1
D#------------------------------------------------------------------|
A#---------------------------------8---10--10--10--10--8---8---8----|
F#---------------------------------x---x---x---x---x---x---x---x----|
C#-~~~~~~~-5~~~~~~-5---5---5---5---5---7---7---7---7---5---5---5----|
G#-~~~~~~~-5~~~~~~-5---5---5---5------------------------------------|
C#-~~~~~~~-5~~~~~~-5---5---5---5------------------------------------|

Guitar 2
D#------------------------------------------------------------------|
A#------------------------------------------------------------------|
F#------------------------------------------------------------------|
C#-~~~~~~~-5~~~~~~-5---5---5---5---5---7---7---5---7---5------------|
G#-~~~~~~~-5~~~~~~-5---5---5---5---------------------------7---5----|
C#-~~~~~~~-5~~~~~~-5---5---5---5------------------------------------|


Guitar 1 & 2
D#-------------------------------------------------------------------|
A#-------------------------------------------------------------------|
F#-------------------------------------------------------------------|
C#-2~~~~~~-2~~~~~~-x---x---x---x---2~~~~~~-2~~~~~~-x---x---5~~~~~~~~-|
G#-2~~~~~~-2~~~~~~-x---x---x---x---2~~~~~~-2~~~~~~-x---x---5~~~~~~~~-|
C#-2~~~~~~-2~~~~~~-x---x---x---x---2~~~~~~-2~~~~~~-x---x---5~~~~~~~~-|


Guitar 1
D#------------------------------------------------------------------|
A#---------------------------------8----8----8----5----5----5-------|
F#---------------------------------x----x----x----x----x----x-------|
C#-~~~~~~~-5~~~~~~-5---5---5---5---5----5----5----2----2----2-------|
G#-~~~~~~~-5~~~~~~-5---5---5---5------------------------------------|
C#-~~~~~~~-5~~~~~~-5---5---5---5------------------------------------|

Guitar 2
D#------------------------------------------------------------------|
A#------------------------------------------------------------------|
F#------------------------------------------------------------------|
C#-~~~~~~~-5~~~~~~-5---5---5---5---10---10---10---7----7----7-------|
G#-~~~~~~~-5~~~~~~-5---5---5---5---10---10---10---7----7----7-------|
C#-~~~~~~~-5~~~~~~-5---5---5---5---10---10---10---7----7----7-------|
pm                                 .    .    .    .    .    .


Guitar 1 & 2
D#-------------------------------------------------------------------|
A#-------------------------------------------------------------------|
F#-------------------------------------------------------------------|
C#-2~~~~~~-2~~~~~~-x---x---x---x---2~~~~~~-2~~~~~~-x---x---5~~~~~~~~-|
G#-2~~~~~~-2~~~~~~-x---x---x---x---2~~~~~~-2~~~~~~-x---x---5~~~~~~~~-|
C#-2~~~~~~-2~~~~~~-x---x---x---x---2~~~~~~-2~~~~~~-x---x---5~~~~~~~~-|


Guitar 1
D#------------------------------------------------------------------|
A#---------------------------------8---10--10--10--10--8---8---8----|
F#---------------------------------x---x---x---x---x---x---x---x----|
C#-~~~~~~~-5~~~~~~-5---5---5---5---5---7---7---7---7---5---5---5----|
G#-~~~~~~~-5~~~~~~-5---5---5---5------------------------------------|
C#-~~~~~~~-5~~~~~~-5---5---5---5------------------------------------|

Guitar 2
D#------------------------------------------------------------------|
A#------------------------------------------------------------------|
F#------------------------------------------------------------------|
C#-~~~~~~~-5~~~~~~-5---5---5---5---5---7---7---5---7---5------------|
G#-~~~~~~~-5~~~~~~-5---5---5---5---------------------------7---5----|
C#-~~~~~~~-5~~~~~~-5---5---5---5------------------------------------|


Guitar 1 & 2
D#-------------------------------------------------------------------|
A#-------------------------------------------------------------------|
F#-------------------------------------------------------------------|
C#-2~~~~~~-2~~~~~~-x---x---x---x---2~~~~~~-2~~~~~~-x---x---5~~~~~~~~-|
G#-2~~~~~~-2~~~~~~-x---x---x---x---2~~~~~~-2~~~~~~-x---x---5~~~~~~~~-|
C#-2~~~~~~-2~~~~~~-x---x---x---x---2~~~~~~-2~~~~~~-x---x---5~~~~~~~~-|


Guitar 1 & 2
D#------------------------------------------------------------------|
A#------------------------------------------------------------------|
F#------------------------------------------------------------------|
C#-~~~~~~~-5~~~~~~-5---5---5---5---5---5---9---9---4---4---7---7----|
G#-~~~~~~~-5~~~~~~-5---5---5---5------------------------------------|
C#-~~~~~~~-5~~~~~~-5---5---5---5------------------------------------|
pm                                 .   .           .   .


Guitar 1 & 2
D#-------------------------------------------------------------------|
A#-------------------------------------------------------------------|
F#-------------------------------------------------------------------|
C#-2~~~~~~-2~~~~~~-x---x---x---x---2~~~~~~-2~~~~~~-x---x---5~~~~~~~~-|
G#-2~~~~~~-2~~~~~~-x---x---x---x---2~~~~~~-2~~~~~~-x---x---5~~~~~~~~-|
C#-2~~~~~~-2~~~~~~-x---x---x---x---2~~~~~~-2~~~~~~-x---x---5~~~~~~~~-|


Guitar 1
D#------------------------------------------------------------------|
A#---------------------------------8---10--10--10--10--8---8---8----|
F#---------------------------------x---x---x---x---x---x---x---x----|
C#-~~~~~~~~~~~~~~~~~~~~~~~~~~~~~~~-5---7---7---7---7---5---5---5----|
G#-~~~~~~~~~~~~~~~~~~~~~~~~~~~~~~~----------------------------------|
C#-~~~~~~~~~~~~~~~~~~~~~~~~~~~~~~~----------------------------------|

Guitar 2
D#------------------------------------------------------------------|
A#------------------------------------------------------------------|
F#------------------------------------------------------------------|
C#-~~~~~~~~~~~~~~~~~~~~~~~~~~~~~~~-5---7---7---5---7---5------------|
G#-~~~~~~~~~~~~~~~~~~~~~~~~~~~~~~~-------------------------7---5----|
C#-~~~~~~~~~~~~~~~~~~~~~~~~~~~~~~~----------------------------------|


Guitar 1 & 2
D#-------------------------------------------------------------------|
A#-------------------------------------------------------------------|
F#-------------------------------------------------------------------|
C#-2~~~~~~-2~~~~~~-x---x---x---x---2~~~~~~-2~~~~~~-x---x---5~~~~~~~~-|
G#-2~~~~~~-2~~~~~~-x---x---x---x---2~~~~~~-2~~~~~~-x---x---5~~~~~~~~-|
C#-2~~~~~~-2~~~~~~-x---x---x---x---2~~~~~~-2~~~~~~-x---x---5~~~~~~~~-|


Guitar 1 & 2
D#------------------------------------------------------------------|
A#------------------------------------------------------------------|
F#------------------------------------------------------------------|
C#-~~~~~~~-5~~~~~~-5---5---5---5---10---10---10---7----7----7-------|
G#-~~~~~~~-5~~~~~~-5---5---5---5---10---10---10---7----7----7-------|
C#-~~~~~~~-5~~~~~~-5---5---5---5---10---10---10---7----7----7-------|
pm                                 .    .    .    .    .    .


Guitar 1 & 2
D#------------------------------------------------------------------|
A#------------------------------------------------------------------|
F#------------------------------------------------------------------|
C#-5----5----5----4----4----4---------------------------------------|
G#-5----5----5----4----4----4---------------------------------------|
C#-5----5----5----4----4----4---------------------------------------|
pm .    .    .    .    .    .

====================================================================
====================================================================

Tab Legend
h  -  hammer-on
p  -  pull-off
/  -  slide up
\  -  slide down
ps/-  pickslide up
ps\-  pickslide down
~  -  let ring
pm.-  palm mute
b  -  bend
r  -  return from bend
*  -  harmonic
x  -  dead note
^  -  Whammy bar
^\ -  Whammy bar (hold down)

Well there you go. I hope it helped, and check out my cover if you want. Thanks oh, and 
one last thing... ROCK OUT!!!!





Comments


Popular Egypt Central tabs & chords
Home 1 Chords
Home 2 Chords
Backfire Tabs
Down In Flames Tabs
Just Another Lie Intro Tabs
Kick Ass Tabs
Over And Under Tabs
White Rabbit Tabs
You Make Me Sick Tabs
You Make Me Sick 1 Tabs


Song lyrics



↑ Back to top | Tablatures and chords are parodies/interpretations of the original songs. You may use it for private study, scholarship, research or language learning purposes only
© 2014 AZChords.com Contact us | Privacy policy | DMCA | Add/correct tabs | Request tabs | Top 50 tabs