» » »

I Dont Remember Tabs (ver.2)

Artists:  A B C D E F G H I J K L M N O P Q R S T U V W X Y Z # 

I Dont Remember Tabs (ver.2)

Effinboiche
Rating:
0/5 (0 votes)

Tabs too difficult? Try these video lessons and learn fast.
                
>> hmm, eto na un solo. mei konting mali, pakinggan nyo nlng for d timing.. hehe.. senxa 

Solo:

e-------------------------------------------------------------|
b--------------------------------------------------8----------|
g--5-4-4h5p4---4h5p4----7---4h5p4----4h5p4-7-5-5h7---7-5h7p5--|
d------------5-------5----5-------5---------------------------|
a-------------------------------------------------------------|
E-------------------------------------------------------------|

kung drop D:
e---------------------------------------------------------------------------|
b---------------------------------------------------------------------------|
g-----------------------7h8/10-10-8p7-8---7-7h8p7---7h8p7----10----7h8p7----|
d-------------------7s9--------------------------7-------7-----7--------7---|
a-----------3-5-6-7---------------------------------------------------------|
D--5-7-8-9------------------------------------------------------------------|
   .......  .......

e------10------10-----10-----10-----10-10-10s12-10-8h10-8--7-8-7--5---------------|
b--7h8-----7h8----7h8----7h8----7h8----------------------------------7/8\7/8\7----|
g---------------------------------------------------------------------------------|
d---------------------------------------------------------------------------------|
a---------------------------------------------------------------------------------|
E---------------------------------------------------------------------------------|


eto ung mahirap kapain.. hehe.. d ko to sure, pero try lng, kau nlng umaus.. hehe..

e------------------------------------------------|
b-----------------------------------16-----------|
g--------13-------15-------17----------13-15-13--| (2x) >> mei kasunod pa to
d--11h13----11h13----11h13----11h13--------------|         mabilis lng kaso
a------------------------------------------------|         d ko makapa..
E------------------------------------------------|


e--------------------------------------11h13-14/17-15-14-15---|
b--------------------------------10h13------------------------|
g--------------------------10h12------------------------------|
d--------------10-12-13-14------------------------------------|
a--10-12-13-14------------------------------------------------|
E-------------------------------------------------------------|


e--14-14h15p14----14h15p14-----17----14h15p14-----------------|
b--------------15----------15-----15--------------------------|
g-------------------------------------------------------------|
d-------------------------------------------------------------|
a-------------------------------------------------------------|
E-------------------------------------------------------------|

e--14h15-14h15--17--14h15-14h15-14h15-17-------|
b----------------------------------------------|
g----------------------------------------------| yan, hanggang matapos.. hehe
d----------------------------------------------|
a----------------------------------------------|
E----------------------------------------------|
            
Tabs too difficult? Try these video lessons and learn fast.




comments powered by Disqus
↑ Back to top | Tablatures and chords are parodies/interpretations of the original songs. You may use it for private study, scholarship, research or language learning purposes only