» » »

I Dont Remember Tabs (ver.3)

Artists:  A B C D E F G H I J K L M N O P Q R S T U V W X Y Z # 

I Dont Remember Tabs (ver.3)

Effinboiche
Rating:
0/5 (0 votes)

Hard to play? Try these video lessons and learn fast.
                
Hmmm, d ako 100% sure d2 pero mukhang eto na nga un.. wahehe.. sounds good to
me nman eh.. hehehe.. sana magustuhan nyo, ung solo and lead guitar sa intro and verse 

Standar Tuning (Eadgbe)


Intro: guitar 1

e--------------------------|
b--------------------------|
g-5p4p0---4-7-5-4-5-4-0----| (4x)
d-----------------------0--|
a-------5------------------|
E--------------------------|

>>>(mei kasabay din to na lead guitar kaso mei effects, d ko marinig.. hehe..)
    ( i guess Chord C and D din un, d ko lng sure kaya d ko na nlagay.. wahhehe)


verse 1: guitar 1

   Palm Mute.....
e--------------------------|
b--------------------------|
g--5555------7777----------| (4x)
d--5555(4x)--7777(4x)------|
a--3333------5555----------|
E--------------------------|
   ....      ....

>>>>>>[( meron pa yan un sa lead guitar kasabay ng guitar 1 kaso d ko pa makapa!)
        ( kainez!. wahehehe...next tym popost ko... hehe. tapping kxe un, eh d ko)
         ( masyadong marinig... wahehe..)


Chorus:

Guitar 1

e-----------------------------|
b-----------------------------|
g----------------555-555------|
d--55555555------333-333(4x)--|
a--55555555(2x)--333-333------|
E--33333333-------------------|


Guitar 2

e------------------------------------------------------------|
b------------------------------------------------------------|
g----------------555-555-5/77-777-7/99-999-9/1111--11/121212-|
d--55555555------xxx-xxx-x/xx-xxx-x/xx-xxx-x/x-x---x-/x-x-x--|
a--55555555(2x)--333-333-3/55-555-5/77-777-7/9-9---9-/101010-|
E--33333333--------------------------------------------------|


Guitar 1

e-------------------------------------|
b-------------------------------------|
g----------------55555555-------------|
d--55555555------33333333(2x)---5-----|
a--55555555(2x)--33333333-------5-----|
E--33333333---------------------3-----|


guitar 2
  pag nag play na ung C Chord
e----------------------------------------------------|
b----------------------------------------------------|
g------5-4-----5-4-----7-4-----5-4-7-4--7-5-4-5-7----|
d--5-4-----5-4-----5-4-----5-4--------------------5--|
a-------------------------------------------------5--|
E-------------------------------------------------3--|

Verse 2: Guitar 1

  Palm Mute......
e----------------------------------|
b----------------------------------|
g--5555----------------5555--------|
d--5555(8x)--5555------5555(8x)----|
a--3333------5555(8x)--3333--------|
E------------3333------------------|
   ....      ....      ....


(Chorus:)

Guitar 1

e-----------------------------|
b-----------------------------|
g----------------555-555------|
d--55555555------333-333(4x)--|
a--55555555(2x)--333-333------|
E--33333333-------------------|


Guitar 2

e------------------------------------------------------------|
b------------------------------------------------------------|
g----------------555-555-5/77-777-7/99-999-9/1111--11/121212-|
d--55555555------xxx-xxx-x/xx-xxx-x/xx-xxx-x/x-x---x-/x-x-x--|
a--55555555(2x)--333-333-3/55-555-5/77-777-7/9-9---9-/101010-|
E--33333333--------------------------------------------------|


Guitar 1

e--------------------------------|
b--------------------------------|
g----------------55555555--------|
d--55555555------33333333(2x)----|
a--55555555(2x)--33333333--------|
E--33333333----------------------|


guitar 2
  pag nag play na ung C Chord
e--------------------------------------------------|
b--------------------------------------------------|
g------5-4-----5-4-----7-4-----5-4-7-4--7-5-4-5-7--|
d--5-4-----5-4-----5-4-----5-4---------------------|
a--------------------------------------------------|
E--------------------------------------------------|


then... (kasunod to ng chorus)

( (2x) to ha )

Guitar 1

e--------------------------------|
b--------------------------------|
g----------------55555555--------|
d--55555555------33333333(2x)----|
a--55555555(2x)--33333333--------|
E--33333333----------------------|


Guitar 2

e--------------------------------------------------------------|
b--------------------------------------------------------------|
g----------------55555555-5/77-777-7/99-999-9/1111--11/121212--|
d--55555555------xxxxxxxx-x/xx-xxx-x/xx-xxx-x/x-x---x-/x-x-x---|
a--55555555(2x)--33333333-3/55-555-5/77-777-7/9-9---9-/101010--|
E--33333333----------------------------------------------------|

Then Solo na( D ko pa nagagawa, post ko nxt, tnatamad pa ako weh.. waheheh..)
            
Hard to play? Try these video lessons and learn fast. | Correct




comments powered by Disqus
↑ Back to top | Tablatures and chords are parodies/interpretations of the original songs. You may use it for private study, scholarship, research or language learning purposes only