» » »

That Look You Give That Guy Bass tabs (ver.1)

Artists:  A B C D E F G H I J K L M N O P Q R S T U V W X Y Z # 

That Look You Give That Guy Bass tabs (ver.1)

Eels
Rating:
0/5 (0 votes)
Tabs too difficult? Try these video lessons and learn fast.
                I really think it's that
For the rythm, listen to the song
Not very hard to play, but beautifull

 That look you give That Guy  Bass Tab

Intro

G |------------|------------|------------|------------|
D |------------|------------|------------|------------|   x2
A |8-----7-----|6----5------|8-10---8----|7---10------|
E |------------|------------|------------|-------8----|

Verse 1

G |------------|------------|------------|------------|
D |------------|------------|------------|------------|
A |8-----7-----|6----5------|8-10---8----|7---10------|
E |------------|------------|------------|-------8----|

G |------------|------------|-------------|------------|
D |------------|------------|-------------|------------|
A |8----8-7----|7-6---6-5---|8-10---10-8--|8-7---10----|
E |------------|------------|-------------|---------8--|


Chorus

G |------------|------------|------------|-----------------|
D |------------|------------|------------|-----------------|   x2
A |8----8-7----|7-6---6-5---|8-10--10-8--|8-7---10---------|
E |------------|------------|------------|---------8---10-8|



Verse 2

G |------------|------------|------------|------------|
D |------------|------------|------------|------------|  x2
A |8----8-7----|7-6---6-5---|8-10--10-8--|8-7---10----|
E |------------|------------|------------|---------8--|

Chorus

Solo

G |-------------|----------------|---------------|----------------|
D |-------------|----------------|---------------|----------------|
A |8----8-12----|12-13---13-12---|12-10---10-13--|13-15---15-15---|
E |-------------|----------------|---------------|----------------|

G |-------------|----------------|---------------|----------------|
E |-------------|----------------|---------------|----------------|
D |8----8-12----|12-13---13-12---|12-10---10-8---|8-7-----10------|
A |-------------|----------------|---------------|-----------8----|


Verses as verse 2

Chorus

Solo again

Then verse 1 again
            
Tabs too difficult? Try these video lessons and learn fast.


comments powered by Disqus
↑ Back to top | Tablatures and chords are parodies/interpretations of the original songs. You may use it for private study, scholarship, research or language learning purposes only